Goo Goo Dolls - Black Balloon Chords & Tabs

 

Black Balloon Chords & Tabs

Goo Goo Dolls Chords & Tabs

Version: 2 Type: Tab 0 ratings
1 star 2 stars 3 stars 4 stars 5 stars
comments

Black Balloon Tab

   
Black Balloon By Goo Goo Dolls

Tabber - Jake Chen

Bored. Did tab, don't know harmonics in beginning. 
here chords, no strum pattern figure out by self.
have fun.

DADADD tuning, but put it one half step down if 
you want to be accurate to studio recording.

Comments and corrections to darc_blade@hotmail.com

Verse - Here are they lyrics.

1 -  Baby's black balloon makes her fly
     I almost fell into that hole in your life
     And you're not thinking about tomorrow

2 - A thousand other boys could never reach you
    How could I have been the one
    I saw the world spin beneath you

3 - You know the lies they always told you 
    And the love you never knew
    What's the things they never showed you

D|-0--0-|
D|-0--0-|
A|-0--0-|
D|-0--0-|
A|-5--5-|
D|-0--5-| 


Pre Chorus - Bass plays something different.

1 - Cause you were the same as me
    But on your knees

2 - And scatter like ice from the spoon
    That was your womb

3 - That swallowed the light from the sun
    Inside your room

D|-------0--------0---------0--0-0-|
D|-----0--------0--------0--0--0-0-|
A|------------0--------0----0--0-0-|
D|---0----------------------0--5/7-|
A|-2--------4--------5------5--5/7-|
D|---------------------------------|


Chorus - Play three times then riff.

- Comin' down the world turned over
  And angels fall without you there
  And I go on as you get colder
[ Tab from: http://www.guitartabs.cc/tabs/g/goo_goo_dolls/black_balloon_tab_ver_2.html ]
D|-0--0--0--0-|
D|-0--0--0--0-|
A|-0--0--0--0-|
D|-0--0--0--0-|
A|-9--7--5--5-|
D|-9--7--5--0-| x 3 

- Or are you someone's prayer

D|-0--0--0-|
D|-0--0--0-|
A|-0--0--0-|
D|-0--0--0-|
A|-5--7--5-|
D|-5--0--0-|

Break

D|-0--0--0--0-|
D|-0--0--0--0-|
A|-0--0--0--0-|
D|-0--0--0--0-|
A|-4--5--9--7-|
D|-4--5--9--7-|

D|-0--0-|
D|-0--0-|
A|-0--0-|
D|-0--0-|
A|-4--5-|
D|-4--5-|

D|-0--0--0--0--0-|
D|-0--0--0--0--0-|
A|-0--0--0--0--0-|
D|-0--0--0--0--0-|
A|-9--7--5--5--5-|
D|-9--7--5--5--5-|

           *this slide right here is played 
D|-0--0--0--0-|  right after you let end the
D|-0--0--0--0-|  break and let the last note
A|-0--0--0--0-|  echo.
D|-0--0--0--0-|
A|-5--4--2-/5-|
D|-5--4--2-/5-|

Bridge 

- And there's no time left for losin'
When you stand they fall

D|-0--0-|
D|-0--0-|
A|-0--0-|
D|-0--0-|
A|-4--5-|
D|-4--5-|


Ending

-   Comin' down the years turn over 
    And angels fall without you there
    And I'll go and lead you home and
    All because I'm

D|-0--0--0--0-|
D|-0--0--0--0-|
A|-0--0--0--0-|
D|-0--0--0--0-|
A|-9--7--5--5-|
D|-9--7--5--0-| x 4 

- All Because I'm
D|-0-|
D|-0-|
A|-0-|
D|-0-|
A|-9-|
D|-9-|

- I became what you became
D|-0-|
D|-0-|
A|-0-|
D|-0-|
A|-5-|
D|-5-|

- the me...
D|-0-|
D|-0-|
A|-0-|
D|-0-|
A|-5-|
D|-0-|
Comments