Goo Goo Dolls - Big Machine Chords & Tabs

 

Big Machine Chords & Tabs

Goo Goo Dolls Chords & Tabs

Version: 3 Type: Tab 0 ratings
1 star 2 stars 3 stars 4 stars 5 stars
comments

Big Machine Tab

   
Song Title: Big Machine
Artist: Goo Goo Dolls
Album: Gutterflower
Tabbed by Lance
 
Tuning (low to high): Eb Bb Bb Bb Bb F

This is probably the best song off the album. It has a crazy tuning,
but its really cool to play. Enjoy!

Intro and Verse
F -----------------------------------0---0--0-0---0-0-0--0-0--0---
Bb---X-X-X-X--X-X---X---X-X-X-X-X----0---0--0-0---0-0-0--0-0--0---
Bb---5-5-5-5--4-4---4h5-5-5-5-4-4----0---0--0-0---0-0-0--0-0--0---
Bb---5-5-5-5--5-5---5---5-5-5-5-5----2/4-4--4-4---4-4-4--4-4--2---
Bb-----------------------------------X-X-X--X-X---X-X-X--X-X--X---
Eb-----------------------------------2/4-4--4-4---4-4-4--4-4--2---

End of verse and end of pre-chorus
F ---0-0-0---0-0---0---0-0--0-0-0-0-0-----------------------------
Bb---0-0-0---0-0---0---0-0--0-0-0-0-0-----------------------------
Bb---0-0-0---0-0---0---0-0--0-0-0-0-0-----------------------------
Bb---2-2-2---0-0---2/4-4-4--2-2-0-0-0-----------------------------
Bb---X-X-X---0-0---X-X-X-X--X-X-0-0-0-----------------------------
Eb---2-2-2---0-0---2/4-4-4--2-2-0-0-0-----------------------------
[ Tab from: http://www.guitartabs.cc/tabs/g/goo_goo_dolls/big_machine_tab_ver_3.html ]
Pre-Chorus chords
F ---0---0---
Bb---0---0---
Bb---7---4--- end on part above
Bb---0---0---
Bb---0---0---
Eb---0---4---

Chorus
F ---0-0-0-0-0-0-0-0-0-0-0-0-0-0-0-0---0--0--0--0--0--0-----------
Bb---0-0-0-0-0-0-0-0-0-0-0-0-0-0-0-0---0--0--0--0--0--0-----------
Bb---0-0-0-0-0-0-0-0-0-0-0-0-0-0-0-0---5--4--0--2--2--2h4-2--0----
Bb---0-0-0-0-0-0-0-0-X-X-X-X-X-X-X-X---0--0--0--0--0--0---0--0----
Bb---7-7-7-7-7-7-7-7-2-2-2-2-2-2-2-2---X--X--X--X--X--X---X--X----
Eb---7-7-7-7-7-7-7-7-2-2-2-2-2-2-2-2---4--4--4--2--2--2---2--2----

End of chorus chord (repeat over and over until verse begins)
F ---0---
Bb---7---
Bb---7---
Bb---0---
Bb---0---
Eb---X---

Out-Chorus
F ---0--0--0--0--0--0----------0-0-0-0-0-0-0-0--0-0-0-0-0-0-0-0---
Bb---0--0--0--0--0--0----------7-7-7-7-7-7-7-7--7-7-7-7-7-7-7-7---
Bb---5--4--0--2--2--2h4-2--0---7-7-7-7-7-7-7-7--7-7-7-7-7-7-7-7---
Bb---0--0--0--0--0--0---0--0---0-0-0-0-0-0-0-0--0-0-0-0-0-0-0-0---
Bb---X--X--X--X--X--X---X--X---0-0-0-0-0-0-0-0--0-0-0-0-0-0-0-0---
Eb---4--4--4--2--2--2---2--2---X-X-X-X-X-X-X-X--X-X-X-X-X-X-X-X---

End on
F ---0--------0---
Bb---0--------0---
Bb---7---OR---0---
Bb---0--------0---
Bb---0--------0---
Eb---0--------0---

Comments