Goo Goo Dolls - Big Machine Chords & Tabs

 

Big Machine Chords & Tabs

Goo Goo Dolls Chords & Tabs

Version: 1 Type: Bass Tab 0 ratings
1 star 2 stars 3 stars 4 stars 5 stars
comments

Big Machine Bass Tab

   
Tuning-D#,A,D,G
    
    (00:08)
G |------------|
D |------------|
A |----1/------|
D#|------------|

 verse
G |---------------------------------------------------------------------|
D |---------------------------------------------------------------------|
A |6^--6^--6^--6^--6^--6^--6^--6^--6^--6^\------------------------------|
D#|--------------------------------------------2---0-----4-4---2-2--0---|
 
G |---------------------------------------------------------------------|
D |---------------------------------------------------------------------|
A |6^--6^--6^--6^--6^--6^--6^--6^--6^--6^-------------------------------|
D#|-----------------------------------------4--4--4--4----4-4--2--2--0--|

G |---------------------------------------------------------------------|
D |---------------------------------------------------------------------|
A |6^--6^--6^--6^--6^--6^--6^--6^--6^--6^-------------------------------|
D#|--------------------------------------------2---0-----4-4---2-2--0---|


 pre chrous (00:35)
G |----------------------------------------------------------------|
D |----------------------------------------------------------------|
A |6-6-6-6-6-6-6-6-6-6-6-6-6-6-6-----------------------------------|
D#|-------------------------------4--4-4-4-4--4---4---4---4--4--4-2|

G |-----------------------------------------------------------|
D |-----------------------------------------------------------|
A |6-6-6-6-6-6-6-6-6-6-6-6-6-6-6------------------------------|
D#|----------------------------------2---0-----4-4---2-2--0---|

[ Tab from: http://www.guitartabs.cc/tabs/g/goo_goo_dolls/big_machine_btab.html ]
  chorus
G |--------------------------------------------------------|
D |--------------------------------------------------------|    
A |--------------------------------------------------------|  (X2)
D#|7--7--7------2--2--2--------4--4--4------2--2--2--2-----|

   2nd verse
G |---------------------------------------------------------------------|
D |---------------------------------------------------------------------|
A |6^--6^--6^--6^--6^--6^--6^--6^--6^--6^-------------------------------|
D#|-----------------------------------------4--4--4--4----4-4--2--2--0--|

G |---------------------------------------------------------------------|
D |---------------------------------------------------------------------|
A |6^--6^--6^--6^--6^--6^--6^--6^--6^--6^-------------------------------|
D#|--------------------------------------------2---0-----4-4---2-2--0---|

   Pre-chorus
G |----------------------------------------------------------------|
D |----------------------------------------------------------------|
A |6-6-6-6-6-6-6-6-6-6-6-6-6-6-6-----------------------------------|
D#|-------------------------------4--4-4-4-4--4---4---4---4--4--4-2|

G |-----------------------------------------------------------|
D |-----------------------------------------------------------|
A |6-6-6-6-6-6-6-6-6-6-6-6-6-6-6------------------------------|
D#|----------------------------------2---0-----4-4---2-2--0---|


  Chorus
G |--------------------------------------------------------|
D |--------------------------------------------------------|    
A |--------------------------------------------------------|  (X2)
D#|7--7--7------2--2--2--------4--4--4------2--2--2--2-----|


  Outro
G |--------------------------------------|
D |--------------------------------------|
A |--------------------------------------| (x3)
D#|4-4-44444-4-4-2-2-22222-2-0-0-000-00/-|
Comments