Goo Goo Dolls - Acoustic 3 Chords & Tabs

 

Acoustic 3 Chords & Tabs

Goo Goo Dolls Chords & Tabs

Version: 3 Type: Tab 0 ratings
1 star 2 stars 3 stars 4 stars 5 stars
comments

Acoustic 3 Tab

Artist: Goo Goo Dolls
Track:  Acoustic #3
Album:  Dizzy Up The Girl


I'm fed up of seeing absolutely shit tabs for this song so here's my version,
which I think is correct. 

It's a great song by an amzing band.....by the way the Goo's new album 'GUTTERFLOWER'
is out on April 9th....and the new single 'Here Is Gone'is released to radio in 2
weeks time! 

Enjoy.....

e---------------------
b---------------------
g--------0-------0----
d--------------0---0--
a-----2------3-------2
e--3------------------ (play this 3 times)


e----------------------
b----------------------
g-----------------0----
d--------0------0---0--
a-----2------3--------2
e--3------------------- (then play this 3 times)


e---------------------
b---------------------
g--------0-------0----
d--------------0---0--
a-----2------3-------2
e--3------------------ (then this once) 


e----------------------
b----------------------
g-----------------0----
d--------0------0---0--
a-----2------3--------2
e--3------------------- (then play this 3 times)
[ Tab from: http://www.guitartabs.cc/tabs/g/goo_goo_dolls/acoustic_3_tab_ver_3.html ]
e---------------------
b---------------------
g--------0-------0----
d--------------0---0--
a-----2------3-------2
e--3------------------ (then this once) 

then

e-------------------------------------------------------
b-------------------------------------------------------
g----------------0--------0--------------0-------0------
d-------------7--------5----5---------5-------0-----0---
a---slide -5--------7----------7---3-------------------0
e------------------------------------------3------------
(then this 3 times) 

then when it goes 'no one's listening anyway'
go back to 

e---------------------
b---------------------
g--------0-------0----
d--------------0---0--
a-----2------3-------2
e--3------------------

repeat all of this again for the next verse and chorus then play the outro:

e---------------------
b---------------------
g--------0-------0----
d--------------0---0--
a-----2------3-------2
e--3------------------ (play 3 times)


then

e------------------------~3
b------------------------~3
g--------0-------0-------~0
d--------------0---0--0--~0
a-----2------3-----------~x
e--3---------------------~3

If you have any questions or comments email me at sheriffvalenti@hotmail.com

Thanks
Comments