Goo Goo Dolls - Acoustic 3 Chords & Tabs

 

Acoustic 3 Chords & Tabs

Goo Goo Dolls Chords & Tabs

Version: 1 Type: Tab 5 ratings
1 star 2 stars 3 stars 4 stars 5 stars
comments

Acoustic 3 Tab

   
play that 12 times. end in second riff
E---------------------------------
A---------------------------------
D-----0----0------------------------
G--------0---0-----------------------
B---2---3-----2----------------------
E-3-------------------------------
[ Tab from: http://www.guitartabs.cc/tabs/g/goo_goo_dolls/acoustic_3_tab.html ]
v second riff v
E---------------------------------
A---------------------------------
D-----0----0------------------------
G--------0---0-----------------------
B---2---3-----/5----------------------
E-3-------------------------------

play 3 times.
E-------------------------------------
A-------------------------------------
D-------0-----0----------0-----0------
G-----7-----5---5------5-----0---0----
B---5-----7-------7--3-----3-------0--
E-------------------------------------

play first riff 24 more times
end in G
3
3
0
0
x
3

chorus chords 4 times

D5
Em
C5
G5

Comments