Gone Jackals - Born Bad Chords & Tabs

 

Born Bad Chords & Tabs

Gone Jackals Chords & Tabs

Version: 2 Type: Bass Tab 0 ratings
1 star 2 stars 3 stars 4 stars 5 stars
comments

Born Bad Bass Tab

   
Here the Born Bad bass tab
Author: BlackDaniel & Francis.F.

titol: Born Bad
from: Bone to Pick
performed by Gone Jackals

This tabs are for 4-String Bass

main riff
G|-----------------|
D|-----------------|
A|-----------------|
E|-0-0-0-0-3-3-3-3-|


riff 2
G|-----------------|
D|-----------------|
A|-----------------|
E|-2-2-2-2-5-5-5-5-|

[ Tab from: http://www.guitartabs.cc/tabs/g/gone_jackals/born_bad_btab_ver_2.html ]
bridge1
G|-------------------|
D|-------------------|
A|-------------------|
E|-12-11-10-9-8-7-6--|

bridge2
G|---------------|
D|---------------|
A|---------------|
E|-0-3-5-6-5-3-0-|


This song is very easy to play and you couldn't find any difficult to understand 
the song's structure.
However if you have any problem or if the tabs are incorrect send me an 
e-mail to blackdaniel@ngi.it
Comments