Gomez - Tijuana Lady Chords & Tabs


Tijuana Lady Chords & Tabs

Gomez Chords & Tabs

Version: 2 Type: Tab 0 ratings
1 star 2 stars 3 stars 4 stars 5 stars

Tijuana Lady Tab

Gomez Tijuana Lady.
Tabbed by lenny leobold@another.com.
Tijuana Lady - tabbed by Lenny Dawson
Chords used:

    E   Riff1 C#m Bsus2  Asus2  F#m B   Em D C Bm
e --0---0-----4---2------0------0---0---7--5-3-2----
B --0---0-----5---2------0------0---0---8--7-5-3----
G --1---1-----6---4------2------2---9---9--7-5-4----
D --2---2-----6---4------2------4---10--9--7-5-4----
A --2---2-----4---2------0------4---10--7--5-3-2----
E --0---0h20--4---2-----------------8---------------

E   Riff1 C#m  Bsus2 E              Riff1  C#m Bsus2
Take me   down    to where you hide etc.


A                          F#m
Tijuana Lady where did you go?

               A                          F#m
Yeah,i've been,chasing you around old Mexico

           A       B                 E
Yeah,gonna find my way back to San Diego

[ Tab from: http://www.guitartabs.cc/tabs/g/gomez/tijuana_lady_tab_ver_2.html ]
Main Riff During Verse:
e ----------------------------------------------
B -5-5-5-5-5p4-2-2-0-0----4-4-4-4-4p2-2-2-0-0---
G ----------------------------------------------
D ---------------------2----------------------2-
A ----------------------------------------------
E ----------------------------------------------

Solo After Second Chorus:

e -12--/12-11-9-7--7h9p7--7-7-7-5--5-5-4-0-0----------------------
B --------------------------------------------/5-5-5-4--2h4p2--0--
G ----------------------------------------------------------------
D --------------------------------------------------------------2-
A ----------------------------------------------------------------
E ----------------------------------------------------------------

That's the most of the song, and after all that,the only 
change in the song really is:

Em                        Dm      
And you lied to Desperado Del

C                                Bm
Sinjorita come back and meet me again

Em                            Dm
Point of views,Les Sinjoritas,hey,

  C                             Bm
I love you so come back,be with me again. 

:: Ultimate Guitar Archive ::