Gomez - Tijuana Lady Chords & Tabs

 

Tijuana Lady Chords & Tabs

Gomez Chords & Tabs

Version: 1 Type: Tab 0 ratings
1 star 2 stars 3 stars 4 stars 5 stars
comments

Tijuana Lady Tab

============
Tijuana Lady
============

-----
Intro
-----

Strum this chord sequence ad-lib:

1|-0---0---0--|
2|-0---0---0--|
3|-1---2---4--|
4|-2---3---5--|
5|-2---3---5--|
6|-0---0---0--|

 (0:51)
[ Tab from: http://www.guitartabs.cc/tabs/g/gomez/tijuana_lady_tab.html ]
1|-0-------0-----0---0---------0-0-|-------0-----0---0-------------|
2|-0-------0-----0-----0---0---0-0-|-------0-----0---0-------------|
3|-1-------1-----------1---1---1---1---1---1---1-------------------|
4|-2-------2-----------2---2h4-4---2---2---2---2-------2-----------|
5|---------------------------------4-------------------4---2---2---|
6|---------------------------------|-------------------------------|
   1   +   2   +   3   +   4   +   1   +   2   +   3   +   4   +
Comments