Gomez - Rosemary Chords & Tabs

 

Rosemary Chords & Tabs

Gomez Chords & Tabs

Version: 2 Type: Tab 0 ratings
1 star 2 stars 3 stars 4 stars 5 stars
comments

Rosemary Tab

From the album, "Abandoned Shopping Trolley Hotline"

I have the skeleton of the intro to this song,
but it's not totally accurate, as it's my
first tab, and it's fairly difficult to get
the entirety of the guitar line. If anyone has
either a full tab of this song or just
corrections and/or an expansion on the intro, then
it'd be appreciated if you sent me them to my
e-mail address, richard.bell77@ntlworld.com
[ Tab from: http://www.guitartabs.cc/tabs/g/gomez/rosemary_tab_ver_2.html ]
e-------------------------------|
b--7-h8-7----------7-h8-7-------|
g----------8-7-------------8-7--|
D-------------------------------|
A-------------------------------|
E-------------------------------|

e-------8-10--p8-8--------------|
b--7-8-------------8-7-*--------|
g------------------------8--5---|
D-------------------------------|
A-------------------------------|
E-------------------------------|

Note *: This is the part of the intro that I haven't
yet fully figured out. Play around until you think
you've got it and then use the last two notes, they're
right for definite.
Comments