Gomez - Rosemary Chords & Tabs

 

Rosemary Chords & Tabs

Gomez Chords & Tabs

Version: 1 Type: Tab 0 ratings
1 star 2 stars 3 stars 4 stars 5 stars
comments

Rosemary Tab

   
Rosemary - Gomez
From "We Haven't Turned Around" CD1
Tabbed by David Thompson.

I've tabbed the intro out until the band joins in, when it becomes difficult
to distinguish what is being played.
This is definitely one of Gomez's strongest tracks, and it really should have
been on Liquid Skin.

Chords Used:

Cm x35543
G  355433
Fm 133111
G# 466544
Gm 355333

Intro

e:----------------|----------------|----------10-11-10-------|----------------|
B:----------------|----------------|-------13----------13----|----------------|
G:-11-12-11-------|-11-12-11-------|-11-12----------------12-|-11-12-11-------|
D:----------13-12-|----------13-12-|-------------------------|----------12-10-|
A:----------------|----------------|-------------------------|----------------|
E:----------------|----------------|-------------------------|----------------|

e:----------------|----------------|-------------------------|----------------|
B:----------13-12-|----------13-12-|-------13-15-16-15-13-13-|----------------|
G:-11-12-11-12-11-|-11-12-11-12-11-|-11-12-12-14-15-14-12-12-|--(Bar rest)----|
D:----------------|----------------|-------------------------|----------------|
A:----------------|----------------|-------------------------|----------------|
E:----------------|----------------|-------------------------|----------------|

e:----------------|
B:-15-16-15-12-13-|
G:-14-15-14-11-12-|
D:----------------|
A:----------------|
E:----------------|

Cm G Cm G Cm G Fm Cm
Cm G Cm G Cm G Fm Cm

Verse 1
[ Tab from: http://www.guitartabs.cc/tabs/g/gomez/rosemary_tab.html ]
Cm             G        Cm                 G
Rosemary's the kind of girl, don't need no reason,
Cm                  G           Fm     Cm
She's the kind that just won't, settle down.
Cm              G       Cm                 G
Rose is out of season, she'll be done for treason,
Cm                 G            Fm     Cm
She'll be hanging from a tree, upside-down.

Bridge 1

Cm     G#      G                 Fm
Fever, fever, were you trying to run,
Cm     G#      G             Fm   Gm
Fever, fever, Rosemary's not do - ne.

Cm G Cm G Cm G Fm Cm

Verse 2

Cm                  G         Cm               G
Well Rosemary's the kind of, girl tired of her beauty,
Cm       G             Fm      Cm
She has taken all her, mirrors down.
Cm            G              Cm                 G
So you best believe her, the girl will give you fever,
Cm                G                Fm       Cm
She's the kind to heat you up and, cool you down.

Bridge 2

Cm     G#      G                 Fm
Fever, fever, were you trying to run,
Cm     G#      G            Fm   Gm
Fever, diva, Rosemary's not do - ne.

then:

Aaaaahhhh
Cm G Cm G Cm G Fm Cm x5

If you notice any mistakes, or just want to talk about Gomez in general,
please mail me at: david@kmthomp.freeserve.co.uk.
Comments