Gomez - Get Myself Arrested Chords & Tabs

 

Get Myself Arrested Chords & Tabs

Gomez Chords & Tabs

Version: 1 Type: Tab 0 ratings
1 star 2 stars 3 stars 4 stars 5 stars
comments

Get Myself Arrested Tab

===================
Get Myself Arrested
===================

Transcribed by Richard Averill.
E-mail me at nigelolympus@tinet.ie with corrections or comments.

-----
Intro
-----

Wait two bars, then:

1|---------------------------------|-----------------------8-------|
2|<12>-----------------------------|-------------------------------|
3|<12>-----------------------------|-----------------------9-------|
4|<12>-----------------------------|-------------------------------|
5|---------------------------------|-------------------------------|
6|---------------------------------|-------------------------------|
   1   +   2   +   3   +   4   +   1   +   2   +   3   +   4   +

1|-7------\5---5-------------------0-----------------------8-------|
2|---------------------------------|-------------------------------|
3|-7------\5---5-----------5\------|-----------------------9-------|
4|---------------------------------|-------------------------------|
5|---------------------------------|-------------------------------|
6|---------------------------------|-------------------------------|
   1   +   2   +   3   +   4   +   1   +   2   +   3   +   4   +

1|-7------\5---5---------------7\--4-----------------------8-------|
2|---------------------------------|-------------------------------|
3|-7------\5---5-----------5/7-----4-----------------------9-------|
4|---------------------------------|-------------------------------|
5|---------------------------------|-------------------------------|
6|---------------------------------|-------------------------------|
   1   +   2   +   3   +   4   +   1   +   2   +   3   +   4   +

1|-7-----------9-------------------10--------------12\-----10------|
2|---------------------------------|-------------------------------|
3|-7-------7/9-----------------9/10|-----------10/12---------------|
4|---------------------------------|-------------------------------|
5|---------------------------------|-------------------------------|
6|---------------------------------|-------------------------------|
   1   +   2   +   3   +   4   +   1   +   2   +   3   +   4   +

1|-8-------------------------------0-------------------------------|
2|---------------------------------|-------------------------------|
3|-9-----------------------9\------|-------------------------------|
4|---------------------------------|-------------------------------|
5|---------------------------------|-------------------------------|
6|---------------------------------|-------------------------------|
   1   +   2   +   3   +   4   +   1   +   2   +   3   +   4   +

-------
Verse 1
-------

This part is played on an acoustic guitar. The electric guitar
continues to play the intro riff, with the volume turned down.

------
Chorus
------
[ Tab from: http://www.guitartabs.cc/tabs/g/gomez/get_myself_arrested_tab.html ]
  (0:55)    ___   ___   ___                                   ___   ___
           | 3 | | 3 | | 3 |                                 | 3 | | 3 |
1|---------------------------------------|-------2-x---2---2-----2-----2-----|
2|---------------------------------------|-------2-x---2---2-----2-----2-----|
3|-1---1---x---1-1---1-1---1-1---1---1---|-------2-x---2---2-----2-----2-----|
4|-2---2---x---2-2---2-2---2-2---2---2---4---4-------4-------4-----4-----4---|
5|-2---2---x---2-2---2-2---2-2---2---2---4---4-------4-------4-----4-----4---|
6|-0---0---x---0-0---0-0---0-0---0---0---2---2-------2-------2-----2-----2---|
   1   +   2 . . + . . 3 . . +   4   +   1   +   2   +   3   + . . 4 . . +
            ___   ___                               ___   ___       ___
           | 3 | | 3 |                             | 3 | | 3 |     | 3 |
1|-------------------------------------|-------------------------------------|
2|-2---2---x---2-2---2-2---2---2---2---|-------------------------------------|
3|-2---2---x---2-2---2-2---2---2---2---1---1---1---------------4-------------|
4|-2---2---x---2-2---2-2---2---2---2---2---2---2---2--h4-4--h6-----6--p4-----|
5|-0---0---x---0-0---0-0---0---0---0---2---2---2-------------------------7---|
6|-------------------------------------0---0---0-----------------------------|
   1   +   2 . . + . . 3   +   4   +   1   +   2   + . . 3 . . +   4 . . +
            ___   ___   ___                               ___
           | 3 | | 3 | | 3 |                             | 3 |
1|---------------------------------------|---------------------------------|
2|---------------------------------------|---------------------------------|
3|---------x---1-1---1-1---1-1---1---1---|---------------------------------|
4|-2---2---x---2-2---2-2---2-2---2---2---4---4---x---4---4--h6-4---4---4---|
5|-2---2---x---2-2---2-2---2-2---2---2---4---4---x---4-------------4---4---|
6|-0---0---x---0-0---0-0---0-0---0---0---2---2---x---2-------------2---2---|
   1   +   2 . . + . . 3 . . +   4   +   1   +   2   +   3 . . +   4   +
            ___   ___
           | 3 | | 3 |
1|-------------------------------------|-------------------------------|
2|-2---2---x---2-2---2-2---2---2---2---|-------------------------------|
3|-2---2---x---2-2---2-2---2---2---2---1---1---1-----------------------|
4|-2---2---x---2-2---2-2---2---2---2---2---2---2-----------------------|
5|-0---0---x---0-0---0-0---0---0---0---2---2---2-----------------------|
6|-------------------------------------0---0---0-----------------------|
   1   +   2 . . + . . 3   +   4   +   1   +   2   +   3   +   4   +

------
Bridge
------

  (1:18)

1|-0-------------------------------|-------------------------------|
2|-------------------------9b10r---8/9---------5h6-5---------------|
3|-9---b9.5------------------------|-------------------------------|
4|---------------------------------|-------------------------------|
5|---------------------------------|-------------------------------|
6|---------------------------------|-------------------------------|
   1   +   2   +   3   +   4   +   1   +   2   +   3   +   4   +
Comments