Gomez - Blue Moon Rising Chords & Tabs

 

Blue Moon Rising Chords & Tabs

Gomez Chords & Tabs

Version: 2 Type: Bass Tab 0 ratings
1 star 2 stars 3 stars 4 stars 5 stars
comments

Blue Moon Rising Bass Tab

Song:  Blue Moon Rising
Band:  Gomez
Album: Liquid Skin
Tabbed By:  TheBoogieVan(Andy Schacht)

Intro, verse and most of the song:
[ Tab from: http://www.guitartabs.cc/tabs/g/gomez/blue_moon_rising_btab_ver_2.html ]
G|-----------9-------|
D|---------7----7----|
A|------9----------9-|
E|---7---------------|

Chorus:

G|----------9-11--9------------7-9--7----|
D|------11-----------11-----9----------9-|  Then back to
A|---9--------------------7--------------|  the verse
E|---------------------------------------|

There tis.
Comments