Goldsmith Jerry - Star Trek Voyager Chords & Tabs

 

Star Trek Voyager Chords & Tabs

Goldsmith Jerry Chords & Tabs

Version: 1 Type: Tab 0 ratings
1 star 2 stars 3 stars 4 stars 5 stars
comments

Star Trek Voyager Tab

Intro bit
---------

e||---------------9~---------------------------9---8--------------|
B||---9----------------------------9-------------------9----------|
G||---------6----------------------------6-----------------6~-----|
D||---------------------------------------------------------------|
A||---------------------------------------------------------------|
E||---------------------------------------------------------------|

Main bit
--------

e||-----------------2-----1---------------------------------|
B||-2~------------------------2---2---4---4---2---2-----0---|
G||---------------------------------------------------------|
D||---------4~----------------------------------------------|
A||---------------------------------------------------------|
E||---------------------------------------------------------|

e||------------------------------------------------------------------------|
B||-------2--------------------2----------------0--------------------------|
G||------------------------3-------1---1~---------------------1------------|
D||---4-------4---4~--------------------------------1---1-----------3~-----|
A||------------------------------------------------------------------------|
E||------------------------------------------------------------------------|

e||---------------2-----1-----------------------6---------|
B||-2-----------------------2---2---4---4---2---------7---|
G||-------------------------------------------------------|
D||--------4----------------------------------------------|
A||-------------------------------------------------------|
E||-------------------------------------------------------|
[ Tab from: http://www.guitartabs.cc/tabs/g/goldsmith_jerry/star_trek_voyager_tab.html ]
e||------------------------------------------------------|
B||---4---2----------------------------------------------|
G||-----------------------6------------------------------|
D||-----------4---4-----------6---------------6-----4~---|
A||-------------------------------4---4------------------|
E||------------------------------------------------------|


Break
-----
e||--------------------------------0---2~-----------2---3~---|
B||--------------------0---2---3----------------0------------|
G||------------1---3-----------------------------------------|
D||---4~-----------------------------------------------------|
A||----------------------------------------------------------|
E||----------------------------------------------------------|

e||---2~--------2---3~--------------3---4~-------6---4-------------|
B||---------0-------------------0--------------------------2-------|
G||----------------------------------------------------------------|
D||----------------------------------------------------------------|
A||----------------------------------------------------------------|
E||----------------------------------------------------------------|

Outro
-----
e||---------------2-----1-----------------------6---------|
B||-2-----------------------2---2---4---4---2---------7---|
G||-------------------------------------------------------|
D||--------4----------------------------------------------|
A||-------------------------------------------------------|
E||-------------------------------------------------------|

e||-----------------------------------------------------------------|
B||---4---2---------------------------------------------------------|
G||------------------------6----------------------------------------|
D||-----------4---4~-----------6----------------6-----4~-------0~---|
A||--------------------------------4---4~---------------------------|
E||-----------------------------------------------------------------|

e||-----------2---1------------|
B||---2---------------2--------|
G||----------------------------|
D||-------4---------------4~---|
A||----------------------------|
E||----------------------------|
Comments