Goldman Jean-jacques - Peur De Rien Chords & Tabs

 

Peur De Rien Chords & Tabs

Goldman Jean-jacques Chords & Tabs

Version: 1 Type: Tab 0 ratings
1 star 2 stars 3 stars 4 stars 5 stars
comments

Peur De Rien Tab

   
#----------------------------------PLEASE NOTE---------------------------------#
#This file is the author's own work and represents their interpretation of the #
#song. You may only use this file for private study, scholarship, or research. #
#------------------------------------------------------------------------------##
Date: Tue, 10 Oct 1995 18:17:30 +0100 (MET)
From: PARMENTIER Benoit 
Subject: Peur de rien by Jean Jacques Goldman


Peur de rien
(Paroles et musique : J J Goldman, album entre gris clair et gris fonce)



|--------------------|--------------------------
|-----(11)-b11-11-8--|--11-sb11/\/\/\/\---------
|--------------------|-------------------8/10---
|--------------------|--------------------------
|--------------------|--------------------------
|--------------------|--------------------------

|-----------------------------|-----------------------------------------------
|------------8----------------|-----------------------------------------------
|------------8----------------|------------------8--10--b10-10-8-10-(8)-(8)-10
|---10_____-------------------|--------8-(8)/10-------------------------------
|---------------(10)/8--6/\/\-|--8/10-----------------------------------------
|-----------------------------|-----------------------------------------------

|---------------8------------------------------------------------
|-------------8--------------------------------------------11-13-
|-----------8-------------------------------------(10)/12--------
|--(10)-b10--------(10)-b10-10-8-----8-8-------------------------
|---------------------------------10-----10/\/\X-----------------
|----------------------------------------------------------------

|----------11\0-|-(13)-b13/\/\---11-13----|-----------------------------|------
|-(11)-13-------|----------------------13-|-13/\/\----------------------|------
|---------------|-------------------------|-------b10-10-8-10-8(b/4)----|------
|---------------|-------------------------|---------------------10-8-10-|-10/\-
|---------------|-------------------------|-----------------------------|------
|---------------|-------------------------|-----------------------------|------

couplet (same chords as the first) :


(derniere mesure du couplet) son sature
|-------------------------|----------------------------11----|
|----------------13-------|-13/\/\-13-11----11-13/\/\-----13-|
|-------(10)/12-------12--|--------------12------------------|
|--/10--------------------|----------------------------------|
|-------------------------|----------------------------------|
|-------------------------|----------------------------------|

|-(11)-b11-(11)-b11/\/\--11-10-----------------------|
|------------------------------13/\/\-13/\/\------13-|
|-------------------------------------------10-12----|
|----------------------------------------------------|
|----------------------------------------------------|
|----------------------------------------------------|

|--------------------------------------------------11-13-11-|
|-(11)/13--(11)/13/\/\--11-13-11--11-11/\/\-(11)-13---------|
|-------------------------------12--------------------------|
|-----------------------------------------------------------|
|-----------------------------------------------------------|
|-----------------------------------------------------------|

|-13-b13/\/\-b13/\(13)-b13\/\----20-20-|-(18)-b18-(18)-b18/\/\--20-18--18-20-
|----------------------------X/20------|-----------------------------20------
|--------------------------------------|-------------------------------------
|--------------------------------------|-------------------------------------
|--------------------------------------|-------------------------------------
|--------------------------------------|-------------------------------------

--------20-|-(18)-b18--(18)-b18-18-15------------------------------------15-16
-(18)-20---|-------------------------(18)-b18-18-16-18-(18)-b18-18------18----
-----------|------------------------------------------------------17-17/\-----
-----------|------------------------------------------------------------------
-----------|------------------------------------------------------------------
-----------|------------------------------------------------------------------
[ Tab from: http://www.guitartabs.cc/tabs/g/goldman_jean-jacques/peur_de_rien_tab.html ]
|18-20-20/\/------15-16-18-20-20/\/\--20-19-20|-(20)b20-(20)b20-(20)b20-(20)b20
|------------16-18----------------------------|--------------------------------
|----------17---------------------------------|--------------------------------
|---------------------------------------------|--------------------------------
|---------------------------------------------|--------------------------------
|---------------------------------------------|--------------------------------

( BREAK )


(from now, there are two guitars: G1 and G2)

(derniere mesure du couplet)
|-------------------18-|----------------------------((G1))---------|
|------15-16-18-sb18---|-18-b18/\/\-------------------b18-18-16-18-|
|-15-17----------------|-------((G2))--8-(10)-b10-10---------------|
|----------------------|------------6-8----------------------------|
|----------------------|-------------------------------------------|
|----------------------|-------------------------------------------|

  ((G1)) ((G2))  ((G1))
|-------------------------------|-18-sb(18)-b18/\-------(18)b18---------------|
|-16-sb(16)----------((G2))-----|----------------(6)/8-11------(20)\18-16(b/4)|
|----------17-17/\/\---8--------|---------------------------------------------|
|------------------------10-10\8|---------------------------------------------|
|-------------------------------|---------------------------------------------|
|-------------------------------|---------------------------------------------|

|-------------------------------------------|
|-----((G2))------------((G1))--------------|
|-17/\--(10)b10-10-8--10---15/\/\-(12)\10-8-|
|-------------------10----------------------|
|-------------------------------------------|
|-------------------------------------------|

|-------------------------------------|-((G1))-8-11-8---------------------|
|----------((G2))---------------------|-11-b11-------(11)b11-11-8-11--8---|
|-(8)-10/\/\----8-(10)b10-10-8-10/\/\-|-----------------------------10--8-|
|-----------8-10----------------------|-----------------------------------|
|-------------------------------------|-----------------------------------|
|-------------------------------------|-----------------------------------|

|---------------------------------|--------------------------------------------|
|--------8------------------------|-----------------------11----11-------------|
|-(10)b10-8(b/4)----------------8-|----------8-10-(10)b10-(10)b10-(10)b10-10b10|
|-------------10-8-10/\/-8\X---8--|-10/\(8)/10---------------------------------|
|--------------------------8-10---|--------------------------------------------|
|---------------------------------|--------------------------------------------|


|------------------------------------|----------------------------------|
|------------------------------------|--------8-11----------------------|
|-(10)b10--b10-10-8-10-(8)-10/\/--\X-|-(10)b10----(10)b10-10-8-10/\/-\X-|
|------------------------------------|----------------------------------|
|------------------------------------|----------------------------------|
|------------------------------------|----------------------------------|

|-----------------------------------|------------------------------|
|------11---------------------------|------------------------11-13-|
|-(10)b10--10-8----8----------8-----|-----------------(10)-12------|
|--------------(8)-10-8------8-10-8-|-10/\/-8-10-8/\/X-------------|
|----------------------8-6-10-------|------------------------------|
|-----------------------------------|------------------------------|

|------------11-----|(13)b13--(13)b13-(13)b13-(13)b13/(Vib)-(13)b13-13-11-13-11|
|-(11)b13/\/---13/\/|----------------------------------------------------------|
|-------------------|----------------------------------------------------------|
|-------------------|----------------------------------------------------------|
|-------------------|----------------------------------------------------------|
|-------------------|----------------------------------------------------------|

|-----------------8-------------------------|
|-13/\/\/--------8--8-11-8------------------|
|--------(10)b10----------11-10-8-----------|
|--------------------------------10---------|
|-------------------------------------------|
|-------------------------------------------|

|--------------------------------------------------------------|
|----------------------------------------------8-11----------8-|
|-10-8--------8-(10)b10-(10)b10-(10)b10-(10)b10----(10)b10\X---|
|-----10--8-10-------------------------------------------------|
|--------------------------------------------------------------|
|--------------------------------------------------------------|

Enjoy it!

Cm  335543
Gm  355333
Fm  133111
Bb  113331

B10    : one tone bend
sb 10  : a half tone bend
8(b/4) : a quarter tone bend
10/\/\ : Vibrato with left hand
(Vib)  : vibrato with whammie bar


 /    /
        /    /    _/
       ___  / 
      /    /     /
    _/   _/    _/      Autrement dit, Benoit Parmentier

Adresse : Ch h313 Residence des eleves de l'ECPTel: 46 83 78 85 
  2,Avenue Sully Prud'homme
  92290 Chatenay malabry

Comments