Goldie Lookin Chain - Guns Dont Kill Peole Rappers Do Chords & Tabs

 

Guns Dont Kill Peole Rappers Do Chords & Tabs

Goldie Lookin Chain Chords & Tabs

Version: 1 Type: Bass Tab

Guns Dont Kill Peole Rappers Do Bass Tab

Guns dont kill people rappers do - GLC

Tabbed By : zak duarte
e-mail:zakduarte@aol.com 

Tuning: standard
intro:

G|---0-0--3-3--5-------0-0--3-3--5------0-0--3-3--5-------------------------|
D|--------------------------------------------------------------------------|
A|----------------7----------------7-----------------7-----------------------
E|--------------------------------------------------------------------------|
[ Tab from: http://www.guitartabs.cc/tabs/g/goldie_lookin_chain/guns_dont_kill_peole_rappers_do_btab.html ]
rest of song:
G|---3---3-3-0-1-2-3-----3---3-3-3------0-1-2-3---------3--3-3-3-3----------|
D|--------------------------------------------------------------------------|
A|--------------------------------------------------------------------------|
E|--------------------------------------------------------------------------|
improvised, justlisten to the song
Bridge: 

G|----3-----0-1-2-3-----0-1-2-3-----0-1-2-3---------------------------------|
D|--------------------------------------------------------------------------|
A|------5-3---------5-3---------5-3---------5-3-----------------------------|
E|--------------------------------------------------------------------------|




http://www.youknowsit.co.uk/ official GLC website