Goldfinger - Youth Chords & Tabs

 

Youth Chords & Tabs

Goldfinger Chords & Tabs

Version: 1 Type: Bass Tab 0 ratings
1 star 2 stars 3 stars 4 stars 5 stars
comments

Youth Bass Tab

Tabbed By: White noise
Tuning: Standard

G|------------------------------------------------------------------|
D|------------------------------------------------------------------|x2
A|-5-5-5-5---------7-7-7-7---------5-5-5-5--------------------------|
E|---------5-5-5-5---------3-3-3-3---------5-5-5-5-3-3-3-3-3-3-3-3--|
  in my life...
  bury the past...
G|---------------------|
D|---------------------|
A|-7---5---4-----------|
E|---------------------|
  now I know...

G|------------------------------------------------------------------|
D|------------------------------------------------------------------|x2
A|-5-5-5-5---------7-7-7-7---------5-5-5-5--------------------------|
E|---------5-5-5-5---------3-3-3-3---------5-5-5-5-3-3-3-3-3-3-3-3--|
  I don't know anything...
  I don't want anything...
G|---------------------|
D|---------------------|
A|-5555-3-22/3-00------|
E|---------------------|

G|------------------------------------------------------------------|
D|------------------------------------------------------------------|x2
A|-5-5-5-5---------7-7-7-7---------5-5-5-5--------------------------|
E|---------5-5-5-5---------3-3-3-3---------5-5-5-5-3-3-3-3-3-3-3-3--|
  I've made mistakes...
  But now I'm here...
G|---------------------|
D|---------------------|
A|-7---5---4-----------|
E|---------------------|
  now I know...
[ Tab from: http://www.guitartabs.cc/tabs/g/goldfinger/youth_btab.html ]
G|------------------------------------------------------------------|
D|------------------------------------------------------------------|x2
A|-5-5-5-5---------7-7-7-7---------5-5-5-5--------------------------|
E|---------5-5-5-5---------3-3-3-3---------5-5-5-5-3-3-3-3-3-3-3-3--|
  I don't know anything...
  I don't want anything...
G|---------------------|
D|---------------------|
A|-7---5---4-----------|
E|---------------------|
  now I know...

G|-----------------------------------------|
D|-----------------------------------------|x2
A|-2-2-2-2-5-5-5-5-7-7-7-7-7-7-7-7---------|
E|-----------------------------------------|
  Don't want it back...
  I'm well on track...
G|------------------------------------------------------------------|
D|------------------------------------------------------------------|
A|-2-2-2-3-2-2-0----------------------------------------------------|
E|------------------------------------------------------------------|
  As I did when...
G|------------------------------------------------------------------|
D|------------------------------------------------------------------|x2
A|-5-5-5-5---------7-7-7-7---------5-5-5-5--------------------------|
E|---------5-5-5-5---------3-3-3-3---------5-5-5-5-3-3-3-3-3-3-3-3--|
  (Guitar Solo)

G|------------------------------------------------------------------|
D|------------------------------------------------------------------|x2
A|--5------7-------5------7-----10----------------------------------|
E|-5------0-------5------7------------------------------------------|
  In my life...

G|------------------------------------------------------------------|
D|------------------------------------------------------------------|x2
A|-5-5-5-5---------7-7-7-7---------5-5-5-5--------------------------|
E|---------5-5-5-5---------3-3-3-3---------5-5-5-5-3-3-3-3-3-3-3-3--|
  I don't know anything...
  I don't want anything...
G|-------------------------------|
D|-------------------------------|
A|-7---5---4---------------------|
E|------------------------66-5---|
  now I know...
Comments