Goldfinger - You Think Its A Joke Chords & Tabs

 

You Think Its A Joke Chords & Tabs

Goldfinger Chords & Tabs

Version: 1 Type: Bass Tab 0 ratings
1 star 2 stars 3 stars 4 stars 5 stars
comments

You Think Its A Joke Bass Tab

begining/intro

G------------------------------------------
D------------8h7---------------------------
A----------------888h10-10-10-88-77-66-55--
E--10-10-10--------------------------------

when the guitar kicks in
G------------------------------------------
D------------------------------------------
A--77-55-999-77-9-77-55-7------------------
E------------------------------------------

then to this: chorus
G---------------------------
D---------------------------
A-7777-----5555-------------
E------5555----7777---------

verse
G------------------------------------------:2x
D------------8h7---------------------------: 
A----------------888h10-10-10-88-77-66-55--:  
E--10-10-10--------------------------------: 
[ Tab from: http://www.guitartabs.cc/tabs/g/goldfinger/you_think_its_a_joke_btab.html ]
still part of "verse"
G-----------------------------------------------------:2x
D-----12-11------11-12-14-----------------------------:
A---9----------9----------9------9-10-10-9h10h11h12-9-:
E-12---------12--------------12-----------------------:

then back to verse
G------------------------------------------:2x
D------------8h7---------------------------: 
A----------------888h10-10-10-88-77-66-55--:  
E--10-10-10--------------------------------: 

back to the other part of the verse
G-----------------------------------------------------:2x
D-----12-11------11-12-14-----------------------------:
A---9----------9----------9------9-10-10-9h10h11h12-9-:
E-12---------12--------------12-----------------------:

then to this: chorus
G---------------------------
D---------------------------
A-7777-----5555-------------
E------5555----7777---------

back to verse...  play that for a bit then chorus..i think u can get it now
Comments