Goldfinger - The Innocent Chords & Tabs

 

The Innocent Chords & Tabs

Goldfinger Chords & Tabs

Version: 2 Type: Tab 0 ratings
1 star 2 stars 3 stars 4 stars 5 stars
comments

The Innocent Tab

Goldfinger featuring Mest and Good Charlotte
ďThe InnocentĒ
WTC Tribute song

Iím writing this for 1 guitar although the actual song contains 2.  I donít have the time 
to tab out the entire sets, the only thing guitar two really does thatís noticeable is in 
Verse Two where he goes:

E|-------------------
B|-------------------
G|-7-7-9-9-7-7-7-7---  constantly.
D|-------------------
A|-------------------
E|-------------------

Verse 1
Light Distortion
E|------------------------------------------------------------------
B|------------------------------------------------------------------
G|-7-7-7-7-7-7-7-7-------------------------------------------------- 
D|-7-7-7-7-7-7-7-7-7-7-7-7-7-7-7-7-9-9-9-9-9-9-9-7-5-5-5-5-5-5-5-5--
A|-5-5-5-5-5-5-5-5-7-7-7-7-7-7-7-7-9-9-9-9-9-9-9-7-5-5-5-5-5-5-5-5--
E|-----------------5-5-5-5-5-5-5-5-7-7-7-7-7-7-7-5-3-3-3-3-3-3-3-3--

E|------------------------------------------------------------------
B|------------------------------------------------------------------
G|-7-7-7-7-7-7-7-7-----------------====================------------- 
D|-7-7-7-7-7-7-7-7-7-7-7-7-7-7-7-7------pick-scrap------------------
A|-5-5-5-5-5-5-5-5-7-7-7-7-7-7-7-7-====================-------------
E|-----------------5-5-5-5-5-5-5-5----------------------------------

Heavy Distortion                                          \
E|-----------------------------------------------          |
B|-----------------------------------------------          |
G|-7---7-7-7-------------------------------------          |
D|-7---7-7-7-7---7-7-7--9---9-9-7--5-5-5-5-5-5---          | 
A|-5---5-5-5-7---7-7-7--9---9-9-7--5-5-5-5-5-5ó--          | 
E|-----------5---5-5-5--7---7-7-5--3-3-3-3-3-3---          |Verse 1: X2
                                                           |
E|----------------------------------------------------     |Verse 2: X1
B|----------------------------------------------------     |
G|-7---7-7-7------------------------------------------     | 
D|-7---7-7-7-7---7-7-7-5-5-5---5-5-5---5-5-5---5-5-5--     |
A|-5---5-5-5-7---7-7-7-5-5-5---5-5-5---5-5-5---5-5-5--     |
E|-----------5---5-5-5-3-3-3---3-3-3---3-3-3---3-3-3--     |
P.M.                   |_|     |_|     |_|     |_|        /

 Chorus
Heavy Distortion
E|----------------------------------------------------------------
B|----------------------------------------------------------------
G|-7-7----------4-4----------------------------------------------- X2
D|-7-7--7-7--7--4-4--4-4--4--55555555-77777777-9999999999999999---
A|-5-5--7-7--7--2-2--4-4--4ó-55555555-77777777-9999999999999999---
E|------5-5--5-------2-2--2--33333333-55555555-7777777777777777---
[ Tab from: http://www.guitartabs.cc/tabs/g/goldfinger/the_innocent_tab_ver_2.html ]
E|----------------------------------------------------------------
B|----------------------------------------------------------------
G|---------------7--7-7--=====================-------------------- X1
D|-5--5---7--7---7--7-7-------pick scrap--------------------------
A|-5--5---7--7---5--5-5--=====================--------------------
E|-3--3---5--5----------------------------------------------------

Interlude
Heavy Distortion
E|---------------------------------------------------
B|---------------------------------------------------
G|---------------------------------------------------
D|---------------------------------------------------
A|-5-5-5-7-5-4-4-4-0-2-2-2-0-2-/-4-5-5-5-7-5-4-4-5---
E|---------------------------------------------------

E|------------------------------
B|------------------------------
G|----------------------7-7-7---
D|----5-5-5-7-7-7-9-9-9-7-7-7---
A|----5-5-5-7-7-7-9-9-9-5-5-5---
E|----3-3-3-5-5-5-7-7-7---------
P.M.  |_|   |_|   |_|   |_|

E|------------------------------------------------------------------
B|------------------------------------------------------------------
G|------------------------------------------------------------------
D|-0-0-4-0-5-0-4-0-2-0-4-0-5-0-4-0-0-0-4-0-5-0-7-0-9-0-7-0-5-0-4-0--
A|------------------------------------------------------------------
E|------------------------------------------------------------------

E|----------------------------------------------------------------
B|----------------------------------7-----7-----------------------
G|------------------------------------7-----7---------------------
D|-0-0-4-0-5-0-4-0-2-0-4-0-5-0-4-0------7-------------------------
A|----------------------------------------------------------------
E|----------------------------------------------------------------
						 Resonate

Song Pattern
Piano Intro
Verse 1
Chorus
Verse 2
Chorus
Interlude
Chorus
Piano Outro
Lyrics
Verse 1
The start of Armageddon 
And itís just another day
We all saw the news, nothing to say
So many friends are missing
Family members gone
So we all prayed that God help them be strong
And now we stand together
Remembering that day
The lives we live weíll never be the same

Chorus
We donít know why
The Innocent die
Will this world ever find a way to change
And we donít know why
But we know itís not right
We donít know why so many had to die
We donít know why so many had to die

Verse 2
Hate is turned to others
For their religion or their skin
But hate canít solve the problems it began
Everyone is angry
People are afraid
And no one knows what decisions will be made

Chorus
We donít know why
The Innocent die
Will this world ever find a way to change
And we donít know why
But we know itís not right
We donít know why so many had to die
We donít know why so many had to die

Chorus
We donít know why (donít know why)
The Innocent die (donít know why)
Will this world ever find a way to change
And we donít know why (donít know why)
But we know itís not right (donít know why)
We donít know why so many had to die
We donít know why so many had to die

Outro
I donít know why
The Innocent die
Will any of us be the same
Will any of this ever be the same
Comments