Goldfinger - Superman Chords & Tabs

 

Superman Chords & Tabs

Goldfinger Chords & Tabs

Version: 1 Type: Bass Tab 0 ratings
1 star 2 stars 3 stars 4 stars 5 stars
comments

Superman Bass Tab

Song: Superman
Band: Goldfinger
Tabbed by: James Bradley

> means strum
/ means slide

The guitar plays the intro, and then the
bass comes in on the last few measures with:
G-------------------------------------------------------
D-------------------------------------------------------
A--0>---------------------------------------------------
E-------------------------------------------------------

Verse, Part One:
G-------------------------------------------------------
D-0>----2>----2>-4>-5>-7>-------------------------------
A----0>----2>-------------------------------------------
E-------------------------------------------------------

Verse, Part Two:
G-------------------------------------------------------
D---4-5-4-------------0-2-0-4--------------------4-5-4--
A-5----------4-5-7--2---------4-2-0----2-3-2---5--------
E----------5-------------------------3------------------

G-------------------------------------------------------
D-------------------------------------------------------
A----4-5-4-7-5-4----------------------------------------
E--5-------------5--------------------------------------

Verse, Part Two, Variation:
G-------------------------------------------------------
D---4-5-4-7-5-4-2---0-2-0-4------------------7-5-4------
A-5---------------2---------0-2-4---2-3-2--5------------
E---------------------------------3---------------------

G-------------------------------------------------------
D-------------------------------------------------------
A----4-5-4-7-5-4----------------------------------------
E--5-------------5--------------------------------------

Chorus:
G-----------------------0>-2>---------------------------
D-----------------------------0-0-----------------------
A----5-0-/-12>-----4-2>-----------0>--------------------
E--3------------2---------------------------------------
[ Tab from: http://www.guitartabs.cc/tabs/g/goldfinger/superman_btab.html ]
"I'm trying to sleep" Verse:
G-------------9-7-6-------------------------------------
D----4-5-4--7---------0-2-0--4-------------------4-5-4--
A--5----------------2----------0-2-4----2-3-2--5--------
E-------------------------------------3-----------------

G-------------------------------------------------------
D-------------------------------------------------------
A----4-5-4-7-5-4----------------------------------------
E--5-------------5--------------------------------------

"I'm trying to sleep" variation:
G-------------------------------------------------------
D----4-5-4-7-5-4-2---0-2-0-4-2-0--------------4-5-4-----
A--5---------------2-------------4----2-3-2-5-----------
E-----------------------------------3-------------------

G-------------------------------------------------------
D-------------------------------------------------------
A----4-5-4-7-5-4----------------------------------------
E--5-------------5--------------------------------------

Chorus coming into bridge ends like this:
G-------------------------------------------------------
D-------------------------------------------------------
A-------------------------------------------------------
E--3>-5>------------------------------------------------

Bridge:
G-------------------------------------------------------
D-------------------------------------------------------
A-------------------------------------------------------
E---5-5-7-7-8-8-7-5--7-7-9-9-10-10-9-10-----------------

G-------------------------------------------------------
D-------------------------------------------------------
A-------------------------------------------------------
E--12-12-14-14-15-15-14-12--5-5-8-8-7-7-8-10------------

G-------------------------------------------------------
D-----------------------------7---7-0>------------------
A-------------------------------------------5>-6>-8>----
E--12-12-14-14-15-15-14-12--5---5-----0>-5>-------------

I'm not exactly sure how it goes during the guitar solo,
but I always just play one of the verse riffs over it.

Comments