Goldfinger - Spokesman Chords & Tabs

 

Spokesman Chords & Tabs

Goldfinger Chords & Tabs

Version: 2 Type: Tab 0 ratings
1 star 2 stars 3 stars 4 stars 5 stars
comments

Spokesman Tab

Intro/Pre verse riff

E----------------------------------------------------------------
B----------------------------------------------------------------
G--4---4---4---4---4---------------------------------------------
D--4-2-4-2-4-2-4-2-4---------------------------------------------
A--2-2-2-2-2-2-2-2-2---------------------------------------------
E----0---0---0---0-----------------------------------------------

Verse
E----------------------------------------------------------------
B----------------------------------------------------------------
G--4-4-4-4-4-4-4-----------------6-6-6-6-6-6-6-6------4-4-4-4-4-4
D--4-4-4-4-4-4-4-4-4-4-4-4-4-4-4-6-6-6-6-6-6-6-6--2-4-4-4-4-4-4-4  X2
A--2-2-2-2-2-2-2-4-4-4-4-4-4-4-4-4-4-4-4-4-4-4-4--2-4-2-2-2-2-2-2
E----------------2-2-2-2-2-2-2-2------------------0-2------------
[ Tab from: http://www.guitartabs.cc/tabs/g/goldfinger/spokesman_tab_ver_2.html ]
Pre Chorus
E----------------------------------------------------------------
B----------------------------------------------------------------
G--2-2-2---------------------------------------------------------
D--2-2-2---------------------------------------------------------
A--0-0-0--4-5-7-5-4-4--------------------------------------------
E----------------------------------------------------------------

Chorus
E-------------------------------------------------------------------------
B-------------------------------------------------------------------------
G--------------------7-7-7-7-4-4-4-4-----------------77777777-------------
D--5-5-5-5--7-7-7-7--7-7-7-7-4-4-4-4-5-5-5-5-7-7-7-7-77777777-7777777----- X2
A--5-5-5-5--7-7-7-7--5-5-4-4-2-2-2-2-5-5-5-5-7-7-7-7-55555555-7777777-----
E--3-3-3-3--5-5-5-5------------------3-3-3-3-5-5-5-5----------5555555-----

Intro/Pre Verse riff
Verse X2
Pre Chorus
Chorus X2
Intro/Pre Verse riff
Verse X2 (palm muted)
Pre Chorus
Chorus X2
Intro/Pre Chorus riff about 4 times
Chorus X3
Intro/Pre Chorus riff X2

And thats it. One of Goldfingers best

Check out Just a day By Feeder for more amazing tabs by Timmy
Comments