Goldfinger - Spokesman Chords & Tabs

 

Spokesman Chords & Tabs

Goldfinger Chords & Tabs

Version: 2 Type: Bass Tab 0 ratings
1 star 2 stars 3 stars 4 stars 5 stars
comments

Spokesman Bass Tab

-------------------------------------------------------------------------------
			     SONG NAME - Band Name
-------------------------------------------------------------------------------

Tabbed By : mr. penis
e-mail: leadguitarist@yahoo.com

Tuning:lowest to hightest EADG
bass solo is around the end 2nd from last chorus
[ Tab from: http://www.guitartabs.cc/tabs/g/goldfinger/spokesman_btab_ver_2.html ]
G|--------------------------------------------------------------------------|
D|--------------------------------------------------------------------------|
A|----2-5--------4-7------9-7-5---------------------------------------------|
E|---3---------5-----------5-5-5--------------------------------------------|

G|--------------------------------------------------------------------------|
D|--------------------------------------------------------------------------|
A|---2-5------4-7------5----------------------------------------------------|
E|--3--------5----------5---5555--------------------------------------------|

G|---------------------------------------------------------------------------|
D|---------------------------------------------------------------------------|
A|-2-2-2-2-2--xx-2-2-2-2-2---------------------------------------------------|
E|--0-0-0-0-------0-0-0-0----------------------------------------------------|
Comments