Goldfinger - Spokesman Chords & Tabs

 

Spokesman Chords & Tabs

Goldfinger Chords & Tabs

Version: 1 Type: Bass Tab 0 ratings
1 star 2 stars 3 stars 4 stars 5 stars
comments

Spokesman Bass Tab

   
Intro
G-----------
D-----------
A-2-2-2-2-2-
E--0-0-0-0--

Verse
G--------------------------------------------------------
D--------------------------------------------------------
A-2222222222222222----------------4444444444444444-----2-
E-----------------2222222222222222----------------00-22--

Pre Chorus
G-------
D-------
A-0-0-0-
E-------
[ Tab from: http://www.guitartabs.cc/tabs/g/goldfinger/spokesman_btab.html ]
Chorus
G--------------------------------------------------------------------
D--------------------------------------------------------------------
A------------------5555-4444-22222222-----------------55555555-------
E-33333333-55555555------------------33333333-55555555--------555555-

Bridge
G------------------------------------------------
D------------------------------------------------
A-2-2-2-2-2-2-2-2-2-2-2---2-2-2-2-2-222-2222222--
E--0-0-0-0-0-0-0-0-0-0-000-0-0-0-0-0---0-------0-

Outro
G-------------------------
D-------------------------
A-2-2-2-2-2---2-2-2-2-2-2-
E--0-0-0-0-000-0-0-0-0-0--
Comments