Goldfinger - San Simeon Chords & Tabs

 

San Simeon Chords & Tabs

Goldfinger Chords & Tabs

Version: 1 Type: Tab 0 ratings
1 star 2 stars 3 stars 4 stars 5 stars
comments

San Simeon Tab

Goldfinger - San Simeon
tabbed by eric schad  idontfuckingcare@juno.com
off Stomping Ground
due out March 28 so go pick it up!!!
 
Intro (acoustic w/ slide in background making a hawaiian kinda thing)
 
-0-------------------------------------
-0--5----------------------------------
-1--6--6-------------------------------
-2--6--7--4----------------------------
-2--4--7--4----------------------------
-0-----5--2----------------------------
 
thing after that
 
-0-------5--7--------------------------------
-0-------5--7--------------------------------
-1-------6--8--------------------------------
-2---4--7--9--------------------------------
-2---4--7--9--------------------------------
-0---2--5--7--------------------------------
 
all of the verses(sometimes palm muted)
 
--------------------------------------------
--------------------------------------------
--7s9-------------------------------------
--7s9--7----9--5-----------------------
--5s7--7----9--5-----------------------
---------5----7--3-----------------------
 
the chorus is the same as the intro except w/ distortion
 
little solo thingy
 
-----------------------------------------------------------
-----------------------------------------------------------
-----------------------------------------------------------
-----------------------------------------------------------
-------9-7--7-7-7-9-11----9-11-12-11-9-7-9----
-7-7-7---------------------------------------------------
 
end on acoustic intro
[ Tab from: http://www.guitartabs.cc/tabs/g/goldfinger/san_simeon_tab.html ]
Comments