Goldfinger - Open Your Eyes Chords & Tabs

 

Open Your Eyes Chords & Tabs

Goldfinger Chords & Tabs

Version: 5 Type: Tab 0 ratings
1 star 2 stars 3 stars 4 stars 5 stars
comments

Open Your Eyes Tab

   
Band: Goldfinger
Song: Open Your Eyes

Harmonics = *

Intro:
e|----------------------------------------------------------x2-|----------|
B|-------------------------------------------------------------|----------|
G|-------------------------------------------------------------|-9*9*9*---|
D|-------4-4-4-4-4-------7-7-7-7-7-------4-4-4-4-4-------7-7-7-|-9*9*9*---|
A|-2-2-2-2-2-2-2-2-5-5-5-5-5-5-5-5-2-2-2-2-2-2-2-2-5-5-5-5-5-5-|----------|
E|-0-0-0-----------3-3-3-----------0-0-0-----------3-3-3-------|----------|
  PM----------------------------------------------------------------------|

e|-------------------------------x2-|
B|----------------------------------|
G|-------4-4-4-4-4-------7-7-7-7-7--|
D|-2-2-2-4-4-4-4-4-5-5-5-7-7-7-7-7--|
A|-2-2-2-2-2-2-2-2-5-5-5-5-5-5-5-5--|
E|-0-0-0-----------3-3-3------------|

Verse:
e|--------------------------------------------------------------x4-|--------|
B|-----------------------------------------------------------------|--------|
G|-----------------------------------------------------------------|-9*9*9*-|
D|-------4-4-4-4-4-------7-7-7-7-7-------4-4-4-4-4-------7-7-7-7-7-|-9*9*9*-|
A|-2-2-2-2-2-2-2-2-5-5-5-5-5-5-5-5-2-2-2-2-2-2-2-2-5-5-5-5-5-5-5-5-|--------|
E|-0-0-0-----------3-3-3-----------0-0-0-----------3-3-3-----------|--------|
  PM---------------------------------------------------------------|--------|
Pre-Chorus:
e|-----------------------------------------------------------------------|
B|-----------------------------------------------------------------------|
G|--------------------------------------------------------------9*9*9*---|
D|-5-5-5-5-5-5-5-5-5-5-5-5-5-5-5-5-4-4-4-4-4-4-4-4-4-4-4-4-4-4--9*9*9*---|
A|-3-3-3-3-3-3-3-3-3-3-3-3-3-3-3-3-2-2-2-2-2-2-2-2-2-2-2-2-2-2-----------|
E|-----------------------------------------------------------------------|
   PM--------------------------------------------------------------------|

Chorus:
e|-------------------------------x4-|
B|----------------------------------|
G|-------4-4-4-4-4-------7-7-7-7-7--|
D|-2-2-2-4-4-4-4-4-5-5-5-7-7-7-7-7--|
A|-2-2-2-2-2-2-2-2-5-5-5-5-5-5-5-5--|
E|-0-0-0-----------3-3-3------------|

Verse

Guitar 2 "Sell you from birth"
e|----12--|
B|--12----|

Pre-Chorus

Guitar 2
E|--------12-------12-----12--------|
B|-------------12------12-----------|
G|----9-----------------------------|
D|-10---9---------------------------|
A|----------------------------------|
E|----------------------------------|

Chorus
[ Tab from: http://www.guitartabs.cc/tabs/g/goldfinger/open_your_eyes_tab_ver_5.html ]
Bridge: Guitar 1
e|----------------------------------------------------|
B|----------------------------------------------------|
G|-9-9-9-9-9-9-9-9-9-1010101010101010-5-5-5-5-5-5-5-5-|
D|-9-9-9-9-9-9-9-9-9-1010101010101010-5-5-5-5-5-5-5-5-|
A|-7-7-7-7-7-7-7-7-7--8-8-8-8-8-8-8-8-3-3-3-3-3-3-3-3-|
E|-0-0-0-0-0-0-0-0-0--8-8-8-8-8-8-8-8-----------------|

e|---------------------------------------------------|
B|---------------------------------------------------|
G|-------------------1010101010101010----------------|
D|-9-9-9-9-9-9-9-9-9-1010101010101010-10101010101010-|
A|-7-7-7-7-7-7-7-7-7--8-8-8-8-8-8-8-8-10101010101010-|
E|-0-0-0-0-0-0-0-0-0--8-8-8-8-8-8-8-8--8-8-8-8-8-8-8-|

Guitar 2
e|--------------------------------------12---|
B|-------------------------------------------|
G|-9-9-9-9-9-9-9-9-9--9-----9-----9----------|
D|-9-9-9-9-9-9-9-9-9-----9-----9-----9-------|
A|-7-7-7-7-7-7-7-7-7-------------------------|
E|-0-0-0-0-0-0-0-0-0-------------------------|

e|--------------------12------12---------------------|
B|------------------------12------12-----------------|
G|-9-9-9-9-9-9-9-9-9---------------------------------|
D|-9-9-9-9-9-9-9-9-9------------------10101010101010-|
A|-7-7-7-7-7-7-7-7-7------------------10101010101010-|
E|-0-0-0-0-0-0-0-0-0-------------------8-8-8-8-8-8-8-|

Guitar 1
e|--------------------------------------------------------------x4-|
B|-----------------------------------------------------------------|
G|-----------------------------------------------------------------|
D|-------4-4-4-4-4-------7-7-7-7-7-------4-4-4-4-4-------7-7-7-7-7-|
A|-2-2-2-2-2-2-2-2-5-5-5-5-5-5-5-5-2-2-2-2-2-2-2-2-5-5-5-5-5-5-5-5-|
E|-0-0-0-----------3-3-3-----------0-0-0-----------3-3-3-----------|
  PM---------------------------------------------------------------|

Guitar 2
e|-----------------|
B|-----------------|
G|-99-9--------99--|
D|-99-9--------99--|
A|-77-7--------77--|
E|-00-0--------00--|

Guitar 1
e|----------------------------------------------------|--------|
B|----------------------------------------------------|--------|
G|----------------------------------------------------|-9*9*9*-|
D|-------------------------------------------------5--|-9*9*9*-|
A|-------2-2-2-2-2-------5-5-5-5-5-------2-2-2-2-2-5--|--------|
E|-0-0-0-----------3-3-3-----------0-0-0-----------3--|--------|

Guitar 2
e|-0-------------|
B|-0-------------|
G|-9-------------|
D|-9-Let-ring----|
A|-7-------------|
E|-0-------------|

Chorus x6

Outro: Guitar 1
e|----------------------------|
B|----------------------------|
G|-9-9-9-9-9-9-9-9-9-1010--10-|
D|-9-9-9-9-9-9-9-9-9-1010--10-|
A|-7-7-7-7-7-7-7-7-7--8-8---8-|
E|-0-0-0-0-0-0-0-0-0--8-8---8-|

Guitar 2
E|-12--12--12--12-------------|
B|---12--12--12--12-----------|
G|------------------1010--10--|
D|------------------1010--10--|
A|-------------------8-8---8--|
E|-------------------8-8---8--|

END
Comments