Goldfinger - Open Your Eyes Chords & Tabs

 

Open Your Eyes Chords & Tabs

Goldfinger Chords & Tabs

Version: 3 Type: Tab 0 ratings
1 star 2 stars 3 stars 4 stars 5 stars
comments

Open Your Eyes Tab

   
------------------------------------------------------------
			     OPEN YOUR EYES - GOLDFINGER
------------------------------------------------------------

By: Aaron (Basically I just made some Corrections To Andrew M's Version)

Tuning: Standard 

Intro/verse: 
 
e|---------------------------------(7-7-7)-----------------|
B|---------------------------------(7-7-7)-Play second time|
G|---------------------------------(7-7-7)-----------------|
D|---------------------------------------------------------|
A|-------2-2-2-2-2-------5-5-5-5-5-------------------------|
E|-0-0-0-----------3-3-3-----------------------------------|
 PM. . . . . . . . . . . . . . . .                                   
Pre Chorus:
e|-------------7-7-7---|
B|-------------7-7-7---|
G|-------------7-7-7---|
D|-5-----4-------------|
A|-5-x10-4-x10---------|
E|-3-----2-------------|
[ Tab from: http://www.guitartabs.cc/tabs/g/goldfinger/open_your_eyes_tab_ver_3.html ]
Main Riff/Chorus: Heavy Distrotion
e|---------------------------------------------------------|
B|---------------------------------------------------------|
G|-------4-4-4-4-4-------7-7-7-7-7-------------------------|
D|-2-2-2-4-4-4-4-4-5-5-5-7-7-7-7-7--X2---------------------|
A|-2-2-2-2-2-2-2-2-5-5-5-5-5-5-5-5-------------------------|
E|-0-0-0-----------3-3-3-----------------------------------|


Bridge Riff:  Play (E B G D) behind the solo
e|---------------------------------------------------------|
B|----------9-----------9----------------------------------|
G|-8-----8-----8-----8------(times 2)----------------------|
D|----9-----------9----------------------------------------|
A|---------------------------------------------------------|
E|---------------------------------------------------------|

Bridge Riff 2: 
Slowly play the power chords after a few times
e|---------------------------------------------------------|
B|---------------------------------------------------------|
G|---------------------------------------------------------|
D|---------------------------------------------------------|
A|-------2-2-2-2-2-------5-5-5-5-5-------------------------|
E|-0-0-0-----------3-3-3-----------------------------------|



End With:
e|---------------------------------------------------------|
B|----------9-----------9----------------------------------|
G|-8-----8-----8-----8-------------------------------------|
D|----9-----------9--------2-2--2-2------------------------|
A|-------------------------2-2--2-2------------------------|
E|-------------------------0-0--0-0------------------------|
Comments