Goldfinger - Nothing To Prove Chords & Tabs

 

Nothing To Prove Chords & Tabs

Goldfinger Chords & Tabs

Version: 1 Type: Bass Tab 0 ratings
1 star 2 stars 3 stars 4 stars 5 stars
comments

Nothing To Prove Bass Tab

Nothing To Prove by Goldfinger. If you dont have this album you seriously 
need to evaluate your record collection. 

NOTE:  I'm not perfect, so if it's not totally right, im sorry. I'm also very 
lazy, so im just going to post the basics and you can figure out the rythms 
and stuff. 


INTRO 
G:---------------------------------------------------------------------------- x 2
D:----------------------------------------------------------------------------
A:-------------4---------5-5--4----------------------------4--------5-----444-
E:--7---5---------5-----------------222--------7---5---------5----------------

[ Tab from: http://www.guitartabs.cc/tabs/g/goldfinger/nothing_to_prove_btab.html ]
VERSE: 
(they mess around with the verse, they play on a pattern, but vary from 
different octaves.)
G:----------------------------------------------------------------------------  x 2
D:----------------------------------------------------------------------------
A:---------------------444--------------------------------444-----------------
E:---777----555-----------000-----777-----555------------222----------------

PRE CHORUS(or equivilant thereof)
   And if i want to.....
G:-----------------------------------------------------------------------
D:-----------------------------------------------------------------------
A:---7-6--------------66---4------------------------------------------ x 3 
then...
E:---------7-5----0----------------------------------------------------


G:---------------------------------------------------------------------
D:----------------------------------------------------------------------
A:---7-6-------------444--------------------------------------------
E:---------7-5---0---------2-----------------------------------------

CHORUS:

G:---------------------------------------------------------------
D:----------------------------------------------------------------
A:-----------7---------------------------------------------------
E:----5-----------7---------------------------------------------

Tab By Brian Keith


Comments