Goldfinger - My Girlfriends Shower Sucks Chords & Tabs

 

My Girlfriends Shower Sucks Chords & Tabs

Goldfinger Chords & Tabs

Version: 2 Type: Bass Tab 0 ratings
1 star 2 stars 3 stars 4 stars 5 stars
comments

My Girlfriends Shower Sucks Bass Tab

Song:My Girlfriend's Shower Sucks
Band:Goldfinger
Album:Goldfinger
tabbed by:frolickingmonkey@juno.com
-----------------------------------------------------------------
                                                                 
Intro:                                                           
G|---4-4-4-4-4-4----|                                            
D|---------------7\-|                                            
A|-2----------------|                                            
E|------------------|                                            
                                                                 
First Thing: (repeat)         					 
G|-----------------------------------------|			 
D|o-----4-----------------2---------------o|			 
A|o-2-2---2-------2---0-0---0-------5---5-o|			 
E|----------3-3-3---3---------3-3-3---3----|			 
								 
Next Thing:							 
G|-------------------------------------|	 
D|---------------2-------4-------------|	 
A|-----2---0-0-0---0-2-2---2-------2---|	 
E|-3-3---3-------------------3-3-3---3-|	 
								 
Next Thing (continued)
G|------------------------------|				
D|-------------2-----/4---4---4-|				
A|-----2---0-0---0------4---4---|				
E|-3-3---3---------3------------|				
								
								
"It's Got No Pressure" Thing:					 
G|---------------------------------------------------------|	 
D|---------------2-------------------------------2-------4-|	 
A|-----2---0-0-0---0-2-2-2-2-2-0---------2---0-0---0---4---|	 
E|-3-3---3-----------------------3-2-3-3---3---------2-----|	 
								 
								 
G|----------------------------------------------------|		 
D|---------------2------------------------------------|		 
A|-----2---0-0-0---0-2-2-2-2-2-0--------0-------------|		 
E|-3-3---3-----------------------3-2-3-----2--2--2--2-|		 
								 
Listen To The Recording To Get The Rythms, Otherwise This Makes  
No Sense
[ Tab from: http://www.guitartabs.cc/tabs/g/goldfinger/my_girlfriends_shower_sucks_btab_ver_2.html ]
Comments