Goldfinger - My Everything Chords & Tabs

 

My Everything Chords & Tabs

Goldfinger Chords & Tabs

Version: 2 Type: Tab 0 ratings
1 star 2 stars 3 stars 4 stars 5 stars
comments

My Everything Tab

Not my tab, but the one on here wasn't correct, so I'm putting this up.


Goldfinger - My Everything
Tabbed by Andy Nickols

this is the first tab ever for this song off their new album disconnection notice
so here it goes!
this is just about perfect

Intro x4
E----------------------x-x-x------------------------------------------------|
B----------------------x-x-x------------------------------------------------|
G----------------------x-x-x------------------------------------------------|
D--4--4--4----4--4--4--x-x-x--4--4--4---------------------------------------|
A--4--4--4----4--4--4--x-x-x--4--4--4---------------------------------------|
E--2--0--2----2--0--2--x-x-x--2--0--2---------------------------------------|

Verse 1 x2
E---------------------------------------------------------------------------|
B---------------------------------------------------------------------------|
G---------------------------------------------------------------------------|
D--4--4--4----4--4--4---------4--4--4---------------------------------------|
A--4--4--4----4--4--4---------4--4--4---------------------------------------|
E--2--0--2----2--0--2---------2--0--2---------------------------------------|

Verse 2
E---------------------------------------------------------------------------|
B---------------------------------------------------------------------------|
G--7--------4---------------------------------------------------------------|
D--7--------4---------------------------------------------------------------|
A--5--------2---------------------------------------------------------------|
E---------------------------------------------------------------------------|

Repeat Verse 1
Repeat Verse 2
[ Tab from: http://www.guitartabs.cc/tabs/g/goldfinger/my_everything_tab_ver_2.html ]
Chorus x2
E--------------------------------------------------------------------------|
B--------------------------------------------------------------------------|
G---------------------7--------7-------------------------------------------|
D---7-----7-----4-----7--------7--7----------------------------------------|
A---7-----7-----4-----5--------4--7----------------------------------------|
E---5-----4-----2-----------------5----------------------------------------|

Repeat intro
Repeat Verse 1
Repeat Verse 2
Repeat Verse 1
Repeat Verse 2
Repeat Chorus

Bridge part 1 x3

E---------------------------------------------------------------------------|
B---------------------------------------------------------------------------|
G---------------------------------------------------------------------------|
D--4------2-4--4--4------2-4--4--4------2-4--4--9-----7---------------------|
A--4--2-4------4--4--2-4------4--4--2-4------4--9-----7---------------------|
E--2-----------0--2-----------0--2-----------0--7-----5---------------------|

bridge part 2

E---------------------------------------------------------------------------|
B---------------------------------------------------------------------------|
G---------------------------------------------------------------------------|
D--9-----7-----9-----7-----4-4-4-4x-----------------------------------------|
A--9-----7-----9-----7-----4-4-4-4x-----------------------------------------|
E--7-----5-----7-----5-----2-2-2-2x-----------------------------------------|

Repeat intro x6
Repeat verse 2
Repeat Chorus

Ending
E---------------------------------------------------------------------------|
B---------------------------------------------------------------------------|
G---------------------------------------------------------------------------|
D-4------2-4--4--4------2-4--4--9-----7-----9-----7--4-4-4-4-4-4---4-4-4x---|
A-4--2-4------4--4--2-4------4--9-----7-----9-----7--4-4-4-4-4-4---4-4-4x---|
E-2-----------0--2-----------0--7-----5-----7-----5--2-2-2-2-0-2---2-0-2x---|
Comments