Goldfinger - My Everything Chords & Tabs

 

My Everything Chords & Tabs

Goldfinger Chords & Tabs

Version: 1 Type: Tab 0 ratings
1 star 2 stars 3 stars 4 stars 5 stars
comments

My Everything Tab

Song: My Everything
Artist: Goldfinger
Album: Disconnection Notice

Tabbed by: Steven
Email: shuskey27@hotmail.com

Tuning: EADGBe (Standard)   It's so freakin simple.

Intro:
e|--------------------------------------|----------------------------------|
B|--------------------------------------|----------------------------------|
G|--------------------------------------|----------------------------------|
D|----4---4----4---4----x-x-x-4---4-----|-77777777-----44444444------------|
A|----4---4----4---4----x-x-x-4---4-----|-55555555-----22222222------------|
E|----2-0-2----2-0-2----2-2-2-2-0-2-----|----------------------------------|
                        * * * 
 Verse is the same as intro without the scraping harmonics added with the second part.

 Chorus:
e|-------------------------------------------------------------------------|
B|-------------------------------------------------------------------------|
G|---------------------------------------77776666--------------------------|
D|--77777777----77777777----44444444-----77776666--------------------------|
A|--77777777----77777777----44444444-----55554444--------------------------|
E|--55555555----44444444----22222222---------------------------------------|
[ Tab from: http://www.guitartabs.cc/tabs/g/goldfinger/my_everything_tab.html ]
e|-------------------------------------------------------------------------|
B|-------------------------------------------------------------------------|
G|-------------------------------------------------------------------------|
D|------2h3-3h4------2h3-3h4-------2h3-3h4-----4-2--x3------4-2------------|
A|---4---------2-4------------2-4-----------4--2-0----------2-0------------|
E|---2---------0-2------------0-2-----------2------------------------------|



Lyrics:

I know you take from me
I know you take away
My everything

I know your every way
I know you make your way
to everything, into everything

Chorus:
I know your threat runs deep, I know you in my sleep
and all this time, I find it hard to swallow

I know your history
I know what you mean to me
My everything

I know your mystery
will not be clear to me
My everything

  (Chorus)
I know your mine to keep
I know I'll always be
and all this time i find it hard to swallow

I know you take from me
I know you take away 
My everything

  (Chorus)
I know your mine to keep
I know I'll always be
And all this time I find it hard to swallow

Play in this order:

Intro
Verse
Chorus
Verse
Chorus
Bridge
Intro
Verse
Chorus
Bridge
Half Intro
End!
 
 Hope you like this.  It's the first tab of it on this site. You can go
to www.goldfingermusic.com to listen to the song before it comes out on Cd.
Have fun learning this easy, good song. -Steven Huskey

=============================================================================
Comments