Goldfinger - Margaret Ann Chords & Tabs

 

Margaret Ann Chords & Tabs

Goldfinger Chords & Tabs

Version: 2 Type: Tab 0 ratings
1 star 2 stars 3 stars 4 stars 5 stars
comments

Margaret Ann Tab

----------------------------------------------------------------|
xxxx---------6 6 6 5-----xxxx-----------6h8p6p5h6-------5--xxxx-|
-----5 5 5/7---------5 7------5 5 5/7 7-----------7/5/7--5------|
----------------------------------------------------------------|
----------------------------------------------------------------|
----------------------------------------------------------------|
[ Tab from: http://www.guitartabs.cc/tabs/g/goldfinger/margaret_ann_tab_ver_2.html ]
----------------------------------------------------------------|
----------6 6 6 5--------------------------5--------------------|
5 5 5/7 7--------5 7b 8b 7 5 7 5 7b8b7 5 7---5------------------|
----------------------------------------------------------------|
----------------------------------------------------------------|
----------------------------------------------------------------|

For anyone whos been looking for the awesome solo goldfinger plays about two thirds of 
way through margaret ann....this is actually it.  I havnt really seen this solo posted 
so i put it here for all you goldfigner fans.  Have fun
Comments