Goldfinger - Mable Chords & Tabs

 

Mable Chords & Tabs

Goldfinger Chords & Tabs

Version: 2 Type: Bass Tab 0 ratings
1 star 2 stars 3 stars 4 stars 5 stars
comments

Mable Bass Tab

Song: Mable
Band: Goldfinger
Album:Goldfinger
tabbed by: matthew10_7@juno.com

intro
G:---------------------------------------------------------------
D:---------------------------------------------------------------2x
A:------------------4444444444444444-----------------------------
E:44444444-11111111----------------------------------------------

verse
G:---------------------------------------------------------------
D:---------------------------------------------------------------
A:------------------4444444444444444-----------------------------
E:44444444-11111111----------------------------------------------

G:---------------------------------------------------------------
D:---------------------------------------------------------------
A:------------------44444444/10-10-10-10-10-10-10-10-------------
E:44444444-11111111----------------------------------------------

pre chorus
G:---------------------------------------------------------------
D:---------------------------------------------------------------
A:6-66-66-66-6-4-33-11-44----------------------------------------
E:---------------------------------------------------------------

chorus
G:---------------------------------------------------------------
D:---------------------------------------------------------------
A:--66----33-3-44444444-66666666---------------------------------
E:4----11--------------------------------------------------------
[ Tab from: http://www.guitartabs.cc/tabs/g/goldfinger/mable_btab_ver_2.html ]
G:---------------------------------------------------------------
D:---------------------------------------------------------------
A:--66----33-3-44444444-666--------------------------------------
E:4----11--------------------------------------------------------
verse 2 (different rhythm listen to song)
G:---------------------------------------------------------------
D:---------------------------------------------------------------
A:------------------4444444444444444-----------------------------
E:44444444-11111111----------------------------------------------
bridge
G:---------------------------------------------------------------
D:---------------------------------------------------------------
A:10-1010-1010-1010-10--11-13-15-17------------------------------
E:---------------------------------------------------------------

G:---------------------------------------------------------------
D:---------------------------------------------------------------
A:------------------44444444-66666666----------------------------
E:44444444-11111111----------------------------------------------

chorus
G:---------------------------------------------------------------
D:---------------------------------------------------------------
A:--66----33-3-44444444-66666666---------------------------------
E:4----11--------------------------------------------------------

G:---------------------------------------------------------------
D:---------------------------------------------------------------
A:--66----33-3-44444444-666--------------------------------------
E:4----11--------------------------------------------------------

order
intro 2x
verse
pre-chorus
chorus
verse
pre-chorus
chorus
verse 2 2x
bridge 
chorus

I had to learn this in my band so I am pretty sure this is right. 
 e-mail me if something is wrong.
Comments