Goldfinger - Just Like Heaven Chords & Tabs

 

Just Like Heaven Chords & Tabs

Goldfinger Chords & Tabs

Version: 3 Type: Tab 0 ratings
1 star 2 stars 3 stars 4 stars 5 stars
comments

Just Like Heaven Tab

-----------------------------------------------------------------------------
			JUST LIKE HEAVEN - Goldfinger
-----------------------------------------------------------------------------

Tabbed by: Ignacio "Coco" Vespoli
Email: cocofuhgawz@hotmail.com




Well guys, here i am with another really cool tab, this one is a great song "Just
like heaven", a cure cover. The other tab really really sucks... so thats why im
tabbing this.

_____________________________________________________________________________

Tuning: Normal
Guitar: Any Stratocaster with 24 frets, you will need distortion and a wah/wah pedal





  show me show me show me how you do that trick

e|----------------------------------------------|
B|----------------------------------------------|
G|----------------------------------------------|
D|------------------7-7--7-7-7----6-6--6-6-6----|
A|------------------7-7--7-7-7----7-7--7-7-7----|
E|------------------5-5--5-5-5----4-4--4-4-4----|  



  the one that makes me scream she said
      
e|--------------------------------------|
B|--------------------------------------|
G|--------------------------------------|
D|--9-9--9-9-9-------12-12--12-12-12----|
A|--9-9--9-9-9-------12-12--12-12-12----|
E|--7-7--7-7-7-------10-10--10-10-10----|

  


  the one that makes me laugh she said

e|-------------------------------------|
B|-------------------------------------|
G|-------------------------------------|
D|---7-7--7-7-7--------6-6--6-6-6------|
A|---7-7--7-7-7--------7-7--7-7-7------|
E|---5-5--5-5-5--------4-4--4-4-4------|  
 



  and threw her arms around my neck

e|--------------------------------------|
B|--------------------------------------|
G|--------------------------------------|
D|--9-9--9-9-9-------12-12--12-12-12----|
A|--9-9--9-9-9-------12-12--12-12-12----|
E|--7-7--7-7-7-------10-10--10-10-10----|



  show me how you do it
    
e|--------------------------|
B|--------------------------|
G|--------------------------|
D|-7-7--7-7-7---6-6--6-6-6--|
A|-7-7--7-7-7---7-7--7-7-7--|
E|-5-5--5-5-5---4-4--4-4-4--|  




  and i'll promise you, i'll promise that 
         
e|--------------------------------------|
B|--------------------------------------|
G|--------------------------------------|
D|--9-9--9-9-9-------12-12--12-12-12----|
A|--9-9--9-9-9-------12-12--12-12-12----|
E|--7-7--7-7-7-------10-10--10-10-10----|




  i'll run away with you

e|-----------------------|
B|-----------------------|
G|-----------------------|
D|-7-7-7-7-7--6-6-6-6-6--|
A|-7-7-7-7-7--7-7-7-7-7--|
E|-5-5-5-5-5--4-4-4-4-4--|  
         



  i'll run away with you

e|----------------------------|
B|----------------------------|
G|----------------------------|
D|-9-9-9-9-9--12-12-12-12-12--|
A|-9-9-9-9-9--12-12-12-12-12--|
E|-7-7-7-7-7--10-10-10-10-10--|




SOLO 1: With wah/wah

e|-------------------------------------------------
B|-------------------------------------------------
G|-------------------------------------------------
D|--14-13-11-13-13-11------------------------------
A|--------------------14-12-12-12h14-11-11h12h14---
E|-------------------------------------------------

e|-------------------------------------------------------|
B|-------------------------------------------------------|
G|-------------------------------------------------------|
D|--14-13-11-13-13-11------------------------------------|
A|--------------------14-12-12-12h14-11h12h14-11h12h14---|
E|-------------------------------------------------------|




  sitting on the dizzy edge
  
e|-------------------------|
B|-------------------------|
G|-------------------------|
D|--7-7-7-7-7---6-6-6-6-6--|
A|--7-7-7-7-7---7-7-7-7-7--|
E|--5-5-5-5-5---4-4-4-4-4--|  
 p.m.....................     
 



i kissed her face and kissed her neck 
  
e|-----------------------------------|
B|-----------------------------------|
G|-----------------------------------|
D|---9-9-9-9-9---12-12-12-12-12------|
A|---9-9-9-9-9---12-12-12-12-12------|
E|---7-7-7-7-7---10-10-10-10-10------|
 p.m............................




  i dreamed of all the different ways

e|-------------------------------------|
B|-------------------------------------|
G|-------------------------------------|
D|---7-7-7-7-7---6-6-6-6-6-------------|
A|---7-7-7-7-7---7-7-7-7-7-------------|
E|---5-5-5-5-5---4-4-4-4-4-------------|  
 p.m......................     




  i had to make her glow

e|-----------------------------|
B|-----------------------------|
G|-----------------------------|
D|--9-9-9-9-9--12-12-12-12-12--|
A|--9-9-9-9-9--12-12-12-12-12--|
E|--7-7-7-7-7--10-10-10-10-10--|




 why are you so far away, she said

e|-------------------------------------|
B|-------------------------------------|
G|-------------------------------------|
D|---7-7-7-7-7---6-6-6-6-6-----9-9-----|
A|---7-7-7-7-7---7-7-7-7-7-----9-9-----|
E|---5-5-5-5-5---4-4-4-4-4-----7-7-----|  




 why won't you ever know 
            
e|-------------------------|
B|-------------------------|
G|-------------------------|
D|--9-9-9--12-12-12-12-12--|
A|--9-9-9--12-12-12-12-12--|
E|--7-7-7--10-10-10-10-10--|




 that i'm in love with you 

e|--------------------------|
B|--------------------------|
G|--------------------------|
D|-7-7--7-7-7---6-6--6-6-6--|
A|-7-7--7-7-7---7-7--7-7-7--|
E|-5-5--5-5-5---4-4--4-4-4--|



[ Tab from: http://www.guitartabs.cc/tabs/g/goldfinger/just_like_heaven_tab_ver_3.html ]
 that i'm in love with you 
            
e|-------------------------|
B|-------------------------|
G|-------------------------|
D|--9-9-9--12-12-12-12-12--|
A|--9-9-9--12-12-12-12-12--|
E|--7-7-7--10-10-10-10-10--|




   you     soft and only

e|-----------------------|
B|-----------------------|
G|-----------------------|
D|-4-4-4-----5-5-5-5-5---|
A|-4-4-4-----5-5-5-5-5---|
E|-2-2-2-----3-3-3-3-3---|




  you     lost and lonely

e|-----------------------|
B|-----------------------|
G|-----------------------|
D|-4-4-4-----5-5-5-5-5---|
A|-4-4-4-----5-5-5-5-5---|
E|-2-2-2-----3-3-3-3-3---|




  you  strange as angels

e|-----------------------|
B|-----------------------|
G|-----------------------|
D|-4-4-4-----5-5-5-5-5---|
A|-4-4-4-----5-5-5-5-5---|
E|-2-2-2-----3-3-3-3-3---|




 dancing in the deepest ocean

e|---------------------------|
B|---------------------------|
G|---------------------------|
D|-12-12-12-12-12-12-12-12---|
A|-12-12-12-12-12-12-12-12---|
E|-10-10-10-10-10-10-10-10---|




twisting in the water 

e|---------------------------|
B|---------------------------|
G|---------------------------|
D|-12-12-12-12-12-12-12-12---|
A|-12-12-12-12-12-12-12-12---|
E|-10-10-10-10-10-10-10-10---|




you're just like a dream

e|---------------------------|
B|---------------------------|
G|---------------------------|
D|-12-12-12-12-12------------|
A|-12-12-12-12-12------------|
E|-10-10-10-10-10------------|




SOLO 2: With wah/wah

                     you're just like a dream
e|--------------------------------------------------
B|--------------------------------------------------
G|--------------------------------------------------
D|--14-13-11-13-13-11.------------------------------
A|---------------------14-12-12-12h14-11-11h12h14---
E|--------------------------------------------------

e|-------------------------------------------------
B|-------------------------------------------------
G|-------------------------------------------------
D|--14-13-13h14-16-14-16-16/18-16-18-19-19-19-19---
A|-------------------------------------------------
E|-------------------------------------------------

e|--------------------------------------
B|--------------------------------------
G|--------------------------------------
D|--21-21-----------23-23-21----21-21---
A|--------23-21-23-----------23---------
E|--------------------------------------

e|----------------|
B|-11p9----13-----|
G|------12--------|
D|----------------| repeat 6 times
A|----------------|
E|----------------|

e|-10h12-10-9-10-9---------------------|
B|-----------------12-10-let ring...---|
G|-------------------------------------|
D|-------------------------------------| 
A|-------------------------------------|
E|-------------------------------------|





 the daylight whipped me into shape?

e|---------------------------|
B|---------------------------|
G|---------------------------|
D|---------------------------|
A|---------------------------|
E|---------------------------|




 i must've been asleep for days

e|---------------------------|
B|---------------------------|
G|---------------------------|
D|---------------------------|
A|---------------------------|
E|---------------------------|




 breathed her lips and threw her name

e|---------------------------|
B|-here you can hear when----|
G|-the guy change the--------|
D|-wah wah and put-----------|
A|-the distortion------------|
E|---------------------------|



                     
 i opened up my eyes
  
e|----------------------------------|
B|----------------------------------|
G|----------------------------------|
D|--------------------12-12-12-12---|
A|--------------------12-12-12-12---|
E|--------------------10-10-10-10---|




 i found myself alone, alone, alone

e|--------------------------------|
B|--------------------------------|
G|--------------------------------|
D|-7-7--7-7-7---6-6--6-6-6--9-9---|
A|-7-7--7-7-7---7-7--7-7-7--9-9---|
E|-5-5--5-5-5---4-4--4-4-4--7-7---|




 of al-read-y just seen

e|-------------------------|
B|-------------------------|
G|-------------------------|
D|--9-9-9--12-12-12-12-12--|
A|--9-9-9--12-12-12-12-12--|
E|--7-7-7--10-10-10-10-10--|




 stole the only girl i loved  

e|--------------------------|
B|--------------------------|
G|--------------------------|
D|-7-7--7-7-7---6-6--6-6-6--|
A|-7-7--7-7-7---7-7--7-7-7--|
E|-5-5--5-5-5---4-4--4-4-4--|




 and drown her deep inside of me

e|---------------------------|
B|---------------------------|
G|---------------------------|
D|--9-9-9----12-12-12-12-12--|
A|--9-9-9----12-12-12-12-12--|
E|--7-7-7----10-10-10-10-10--|




 you     soft and only

e|-----------------------|
B|-----------------------|
G|-----------------------|
D|-4-4-4-----5-5-5-5-5---|
A|-4-4-4-----5-5-5-5-5---|
E|-2-2-2-----3-3-3-3-3---|




  you     lost and lonely

e|-----------------------|
B|-----------------------|
G|-----------------------|
D|-4-4-4-----5-5-5-5-5---|
A|-4-4-4-----5-5-5-5-5---|
E|-2-2-2-----3-3-3-3-3---|




  you  just like heaven

e|------------------------------------------------------------------------|
B|------------------------------------------------------------------------|
G|------------------------------------------------------------------------|
D|-4-4-4-----5---------12----------------------12-\-11-\-10-\-9-\-8-7-----|
A|-4-4-4-----5---------12-let ring for a while-12-\-11-\-10-\-9-\-8-------|
E|-2-2-2-----3---------10----------------------10-\-9--\-8--\-7-\-6-------|




=============================================================================
Comments? Just send me an e-mail or a private message!!!
Comments