Goldfinger - Just Like Heaven Chords & Tabs

 

Just Like Heaven Chords & Tabs

Goldfinger Chords & Tabs

Version: 2 Type: Tab 0 ratings
1 star 2 stars 3 stars 4 stars 5 stars
comments

Just Like Heaven Tab

   
submitted by Brandon(bbond123@bellsouth.net or AIM Name coolestguyevr)
Chords:
   F#5 G5  A5  B5  D5
|----------------------|
|----------------------|
|--------------4---7---|
|--4---5---7---4---7---|
|--4---5---7---2---5---|
|--2---3---5-----------|

                A5
show me show me show me
        F#5 
how you do that trick
    B5                D5
the one that makes me scream she said
    A5               F#5
the one that makes me laugh she said
    B5               D5
and threw her arms around my neck
A5              F#5
show me how you do it
    B5                     D5
and i'll promise you, i'll promise that 
         A5             F#5
i'll run away with you
         B5             D5
i'll run away with you

[play with wah/wah pedal]
|---------------------------------|
|---------------------------------|
|--14-13-11-13-11-9-7~~~-9-6-4-6--|
|---------------------------------|
|--12-11-9--11-9--7-5~~~-7-4-2-4--|
|---------------------------------|

|----------------------------------|
|----------------------------------|
|--14-13-11-13-11-9-7~~~-9-7-11-9--|
|----------------------------------|
|--12-11-9--11-9--7-5~~~-7-5-9--7--|
|----------------------------------|
[ Tab from: http://www.guitartabs.cc/tabs/g/goldfinger/just_like_heaven_tab_ver_2.html ]
A5             F#5
sitting on the dizzy edge
  B5                  D5
i kissed her face and kissed her neck 
  A5                 F#5
i dreamed of all the different ways
  B5              D5
i had to make her glow
A5             F#5           B5
why are you so far away, she said
B5            D5
why won't you ever know 
            A5             F#5
that i'm in love with you 
            B5             D5
that i'm in love with you
F#5     G5
you     soft and only
F#5     G5
you     lost and lonely
F#5     G5
you     strange as angels
D5
dancing in the deepest ocean
D5
twisting in the water 
D5                 A5
you're just like a dream

[play with wah/wah pedal]
|---------------------------------|
|---------------------------------|
|--14-13-11-13-11-9-7~~~-9-6-4-6--|
|---------------------------------|
|--12-11-9--11-9--7-5~~~-7-4-2-4--|
|---------------------------------|
          you're just like a dream

|-----------------------------------------------|
|-----------------------------------------------|
|--14-13-14-16-14-16-18-16-18-19--19-19--19-19--|
|-----------------------------------------------|
|--12-11-12-14-12-14-16-14-16-17--17-17--17-17--|
|-----------------------------------------------|

|-------------------------------------------------|
|-17--17-17-17-----------19--19-19-19----------10-|
|--------------16-14-16---------------19-16-19----|
|-14--14-14-14-----------16--16-16-16-------------|
|-------------------------------------------------|
|-------------------------------------------------|

|------------10---------|
|---14^12^10----14^10---|
|o---------------------o| (repeat 6 times)
|o---------------------o|
|-----------------------|
|-----------------------|

|--10^12-9-9^10--------|
|---------------12-10--|
|----------------------|
|----------------------|
|----------------------|
|----------------------|

the daylight whipped me into shape?

i must've been asleep for days

breathed her lips and threw her name?
                     D5
i opened up my eyes
  A5           F#5           B5
i found myself alone, alone, alone
           D5 
of al-read-y just seen
A5             F#5
stole the only girl i loved  
    B5               D5
and drown her deep inside of me
F#5     G5
you     soft and only
F#5     G5
you     lost and lonely
F#5     G5                D5 (pickscrape)
you     just like heaven
Comments