Goldfinger - Just Like Heaven Chords & Tabs

 

Just Like Heaven Chords & Tabs

Goldfinger Chords & Tabs

Version: 2 Type: Bass Tab 0 ratings
1 star 2 stars 3 stars 4 stars 5 stars
comments

Just Like Heaven Bass Tab

-----------------------------------------------------------------------------
			 JUST LIKE HEAVEN - Goldfinger
-----------------------------------------------------------------------------

Tabbed By : Ignacio "Coco" Vespoli
e-mail: cocofuhgawz@hotmail.com

Tuning:Normal

INTRO / VERSE / SOLO
G|-------------|-------------|-------------|-------------------|
D|-------------|-------------|-------------|-------------------|
A|-------------|-------------|-------------|-------------------|
E|--5-5-5-5-5--|--4-4-4-4-4--|--7-7-7-7-7--|--10-10-10-10-10---|

BRIDGE
G|-------------|
D|-------------|
A|-------------|
E|--555555555--|
[ Tab from: http://www.guitartabs.cc/tabs/g/goldfinger/just_like_heaven_btab_ver_2.html ]
CHORUS
G|-------------|--------------|
D|-------------|--------------|
A|-------------|--------------|
E|--2-2-2-2-2--|--3-3-3-3-3---|

Its all on these riffs... there are parts in the song when maybe you can hear some 
for example in a palm mute riff... but the notes are always the same.

READ THIS:
If you want to improvise some riffs or solos on the BRIDGE, you should try with this scale:

G|-----------------------9-------------------------|
D|---------------9-10-12---12-10-9-----------------|
A|-------9-10-12-------------------12-10-9---------|
E|-10-11-----------------------------------11-10---|


===========================================================================
Comments? Send me an e-mail!!!
Comments