Goldfinger - If Only Chords & Tabs

 

If Only Chords & Tabs

Goldfinger Chords & Tabs

Version: 1 Type: Bass Tab 0 ratings
1 star 2 stars 3 stars 4 stars 5 stars
comments

If Only Bass Tab

Song: If Only
Band: Goldfinger
Bassist: Simon Williams

This is a pretty basic song with a few variations

> means strum

Intro
G------------------------------------------------
D----2-3-2---2-3-3-2-----------------------------
A--3-------0---------0---------------------------
E------------------------------------------------

Verse (the rhythm different on each verse,
so listen to it)
G------------------------------------------------
D-----0>-----------------------------------------
A--3>-------3>-----------------------------------
E--------3>--------------------------------------

Pre-chorus
G------------------------------------------------
D------------------------------------------------
A-0----------------------------------------------
E---3-1>-3>--------------------------------------

Chorus
G------------------------------------------------
D------------------------------------------------
A-3>-2>-0>---------------------------------------
E----------3>-1>-3>------------------------------
[ Tab from: http://www.guitartabs.cc/tabs/g/goldfinger/if_only_btab.html ]
Bridge
G------------------------------------------------
D---0---0------------------0>--------------------
A-1---1----3>-----3>-0>-1>-----3>----------------
E--------------1>-----------------0--------------

Hardcore part
G------------------------------------------------
D-------------------------------------2----------
A-----6-----5-----6----5----0-2-3-2--------------
E-0-0---0-0---0-0---0-0--0----------0------------

Coming out of the hardcore part
G------------------------------------------------
D----------------------0-------------------------
A----6----5----4----3----------------------------
E-00---00---00---00------------------------------

Ending
G------------------------------------------------
D-2----0>-----------0-0--------------------------
A---0>----2-0----0>-----4-4-2-2-0-0----0---------
E-------------3>--------------------3>-----------

at :24 it changes a bit
G--0-0-0-----------------------------------------
D------------------------------------------------
A--------3-3-3-----------------------------------
E------------------------------------------------

at 1:03, on the second chorus it changes to
G------------------------------------------------
D------5-5-----5-5------5-5-----5-5--------------
A--3-3-------------------------------------------
E----------7-7------5-5-----3-3-----1>-3>--------

I'm pretty sure that that's everything.
Questions or comments, e-mail jrbradley@hotmail.com 

Comments