Goldfinger - Going Home Chords & Tabs

 

Going Home Chords & Tabs

Goldfinger Chords & Tabs

Version: 1 Type: Bass Tab 0 ratings
1 star 2 stars 3 stars 4 stars 5 stars
comments

Going Home Bass Tab

  Intro and verse

   (on verse 2 p.m this riff)

       -----------------------------------------------------------------------------------------------|
       -----------------------------------------------------------------------------------------------|
       ------5555-------------------------------------------------------------------------------------|
       ------5555----44444----55555----7-7-7------------       ------3333----44444----55555----7-7-7--|
       --------------22222----33333----5-5-5----------------------------------------------------------|

[ Tab from: http://www.guitartabs.cc/tabs/g/goldfinger/going_home_btab.html ]
       chorus

       -------------------------------------------------|
       -------------------------------------------------|
       ----999---777---555-----5---7---9----------------|
       ----999---777---555-----5---7---9----------------|
       ----777---555---333-----3---5---7----------------|

      thats pretty much all of the strumming
      theres some picking in the song but i cant seem to find it

      if this is totally wrong it makes sense cause its my first tab.
       had to work this one out cause i cant seem to find this song on
       at all.

 James Ryan
 London
Comments