Goldfinger - Ghouls Night Out Chords & Tabs

 

Ghouls Night Out Chords & Tabs

Goldfinger Chords & Tabs

Version: 1 Type: Bass Tab 0 ratings
1 star 2 stars 3 stars 4 stars 5 stars
comments

Ghouls Night Out Bass Tab

                           GHOULS NIGHT OUT (Bassline)
                            As recorded by Goldfinger
         (From the 1997 Album VIOLENT WORLD - A TRIBUTE TO THE MISFITS)

Words by Glenn Danzig (The Misfits)

Music by Goldfinger / The Misfits
Tabbed By Big Will

 Intro
  Q=230 fast punk
 4/4
  Gtr I
|-----|
|-----|
|-----|
|-----|


   Verse 1
||------------------|-----------------|-----------------|---------------|
||o-----------------|-----------------|-----------------|---------------|
||o-----------------|-----------------|-----------------|-5--5--7--7----|
||--5-5-5-5-5-5-5-5-|-5-5-5-5-5-5-5-5-|-3-3-3-3-3-3-3-3-|------------5--|


|-----------------|-----------------|-----------------|------------------||
|-----------------|-----------------|-----------------|-----------------o||
|-----------------|-----------------|-----------------|-5-5-5-5-5-5-5-5-o||
|-5-5-5-5-5-5-5-5-|-5-5-5-5-5-5-5-5-|-3-3-3-3-3-3-3-3-|------------------||


 Chorus
|-----------------|-----------------|-----------------|-----------------|
|-----------------|-----------------|-----------------|-----------------|
|-7-7-7-7-7-7-7-7-|-7-7-7-7-7-7-7-7-|-5-5-5-5-5-5-5-5-|-5-5-5-5-5-5-5-5-|
|-----------------|-----------------|-----------------|-----------------|


|-----------------|-----------------|-----------------|-----------------|
|-----------------|-----------------|-----------------|-----------------|
|-7-7-7-7-7-7-7-7-|-7-7-7-7-7-7-7-7-|-3-3-3-3-3-3-3-3-|-3-3-3-3-3-3-3-3-|
|-----------------|-----------------|-----------------|-----------------|


  PM------------------------------|
|-----------------|-----------------||
|-----------------|-----------------||
|-2-2-2-2-2-2-2-2-|-2-2-2-2-2-2-2-2-||
|-----------------|-----------------||


   Bridge
    Q=210 Slower
    PM---|        PM-----|       PM---|        PM-----|
||--------------|--------------|-------------|---------------|
||o-------------|--------------|-------------|---------------|
||o-0-0--0-0----|-0-0--0-0--0--|-4-4--4-4----|-4-4--4-4--4---|
||--------------|--------------|-------------|---------------|


                                            1.               2.
  PM---|        PM-----|       PM---|
|-------------|--------------|-------------|--------------||----------|-----||
|-------------|--------------|-------------|-------------o||----------|-----||
|-5-5--5-5----|-5-5--5-5--5--|-7-7--7-7----|---7--9--7\--o||----------|-----||
|-------------|--------------|-------------|--------------||----------|-----||

[ Tab from: http://www.guitartabs.cc/tabs/g/goldfinger/ghouls_night_out_btab.html ]
   Verse 2
    Q=230 normal again
||------------------|-----------------|-----------------|---------------|
||o-----------------|-----------------|-----------------|---------------|
||o-----------------|-----------------|-----------------|-5--5--7--7----|
||--5-5-5-5-5-5-5-5-|-5-5-5-5-5-5-5-5-|-3-3-3-3-3-3-3-3-|------------5--|


|-----------------|-----------------|-----------------|------------------||
|-----------------|-----------------|-----------------|-----------------o||
|-----------------|-----------------|-----------------|-5-5-5-5-5-5-5-5-o||
|-5-5-5-5-5-5-5-5-|-5-5-5-5-5-5-5-5-|-3-3-3-3-3-3-3-3-|------------------||


 Chorus
|-----------------|-----------------|-----------------|-----------------|
|-----------------|-----------------|-----------------|-----------------|
|-7-7-7-7-7-7-7-7-|-7-7-7-7-7-7-7-7-|-5-5-5-5-5-5-5-5-|-5-5-5-5-5-5-5-5-|
|-----------------|-----------------|-----------------|-----------------|


|-----------------|-----------------|-----------------|-----------------|
|-----------------|-----------------|-----------------|-----------------|
|-7-7-7-7-7-7-7-7-|-7-7-7-7-7-7-7-7-|-3-3-3-3-3-3-3-3-|-3-3-3-3-3-3-3-3-|
|-----------------|-----------------|-----------------|-----------------|


  PM------------------------------|
|-----------------|-----------------||
|-----------------|-----------------||
|-2-2-2-2-2-2-2-2-|-2-2-2-2-2-2-2-2-||
|-----------------|-----------------||


 Out-Chorus
|-----------------|-----------------|-----------------|-----------------|
|-----------------|-----------------|-----------------|-----------------|
|-7-7-7-7-7-7-7-7-|-7-7-7-7-7-7-7-7-|-5-5-5-5-5-5-5-5-|-5-5-5-5-5-5-5-5-|
|-----------------|-----------------|-----------------|-----------------|


|-----------------|-----------------|-----------------|-----------------|
|-----------------|-----------------|-----------------|-----------------|
|-7-7-7-7-7-7-7-7-|-7-7-7-7-7-7-7-7-|-3-3-3-3-3-3-3-3-|-3-3-3-3-3-3-3-3-|
|-----------------|-----------------|-----------------|-----------------|


 Outro
             PM-----|
|----------|--------------|--------*|
|----------|--------------|--------*|
|-2--------|-2-2--2-2--2--|-(2)----*|
|----------|--------------|--------*|

Palmmuted bass? Not too uncommon. Adds to song. This tab is just the root notes of the 
chords on guitar with a few differences. Same as my guitar tab for this song, it will 
be on powertab soon (hopefully).

***************************************************************************************
* Generated using Power Tab Editor by Brad Larsen - http://powertab.guitarnetwork.org *
***************************************************************************************
Comments