Goldfinger - Free Me Chords & Tabs

 

Free Me Chords & Tabs

Goldfinger Chords & Tabs

Version: 1 Type: Tab 0 ratings
1 star 2 stars 3 stars 4 stars 5 stars
comments

Free Me Tab

   
-------------------------------------------------------------------------------
			   Free Me   - Gold Finger
-------------------------------------------------------------------------------
Tabbed by: FlyingPenguin
Email: pensivepunk475@yahoo.com
Tuning: Standard


              INTRO - REPEAT 2 TIMES.
e|---------------------------------------------|
B|---------------------------------------------|
G|---------------------------------------------|
D|------2-0-2----2-0-2-----2-0----3-2-0--------| 
A|---3-------------------------3---------------|
E|-------------3---------1--------------3------|
[ Tab from: http://www.guitartabs.cc/tabs/g/goldfinger/free_me_tab.html ]
         
              REPEAT THRU ENTIRE SONG.
e|-0-0-0-0-0-0---0-0-0-0-0-0---1-1-1-1-1-1---3-3-3-3-3-3--|
B|-1-1-1-1-1-1---1-1-1-1-1-1---1-1-1-1-1-1---3-3-3-3-3-3--|
G|-0-0-0-0-0-0---2-2-2-2-2-2---2-2-2-2-2-2---0-0-0-0-0-0--|
D|-2-2-2-2-2-2---2-2-2-2-2-2---3-3-3-3-3-3---0-0-0-0-0-0--|
A|-3-3-3-3-3-3-------------------------------2-2-2-2-2-2--|
E|-0-0-0-0-0-0-------------------------------3-3-3-3-3-3--|

             REPEAT INTRO 2 TIMES = OUTRO

| /  slide up
| \  slide down
| h  hammer-on
| p  pull-off
| ~  vibrato
| +  harmonic
| x  Mute note
===============================================================================
Comments