Goldfinger - Damaged Chords & Tabs

 

Damaged Chords & Tabs

Goldfinger Chords & Tabs

Version: 1 Type: Bass Tab 0 ratings
1 star 2 stars 3 stars 4 stars 5 stars
comments

Damaged Bass Tab

Band : Goldfinger
Song : Damaged
Album: Disconnection Notice


Another masterpiece from Goldfinger ... Respect! 


Verse x2
"When I come home I know it's you that I'll find..."
G\-------------------------------------------|
D\-------------------------------------------|
A\------3----2----7-----3------2-------------|
E\-0----------------------------------0-0-0-0|

"Damaged is the way I feel..."
G\----------------|
D\----------------|
A\--------2(x8)-0-|
E\-3(x8)----------|

Pre-Verse: (once)
G\-------------------------------------------------------------------------|
D\-------------------------------------------------------------------------|
A\----------3-3-3-3----2-2-2-2----------------------------------7-(let ring|
E\-0-0-0-0-----------------------0-0-0-0---8-8-8-8---7-7-7-7/0-0-0-0-0-0---|

Second verse, same as the firs one
"damaged is the way I feel"
G\-------------------------|
D\-------------------------|
A\---------14(x8)--14/2----|
E\--3(x8)------------------|
[ Tab from: http://www.guitartabs.cc/tabs/g/goldfinger/damaged_btab.html ]
"I wanna know if this is real..." (play this riff twice)
G\--------------------------------|
D\--------------------------------|
A\-5(x8)--0(x8)-2(x8)-------0(x4)-|
E\--------------------3(x4)-------|

play the pre-verse twice, then the "damaged is the way I feel" part , then the "I wanna
know if this is real" part  not twice, but four times and the third and fourth time of
this part should sound something like this:
G\---------------------------------------------------------|
D\-----------------7-5-4-----------4-5-4-------------------|
A\-5(x8)--0-0-0-0-0------2-2-2-2-2--------------0-0-0-0----|
E\--------------------------------------3-3-3-3------------|

Outro:
"When I come home I know it's you that I'll find..."
G\--------------------------------------|
D\--------------------------------------|
A\-----3---2---7----3----2--------------|
E\-0------------------------3----0------|

When I heard this song I left speachless! Enjoy! I hope it's right, although I have the
feeling that this song is played with an acoustic bass, or some strange fretless bass
... whatever:)   Mail me! paperdoll@abv.bg :D
Comments