Goldfinger - Counting The Days Chords & Tabs

 

Counting The Days Chords & Tabs

Goldfinger Chords & Tabs

Version: 1 Type: Tab 0 ratings
1 star 2 stars 3 stars 4 stars 5 stars
comments

Counting The Days Tab

   
--------------------------------
Counting The Days – Goldfinger
--------------------------------

By: Wai
This is a good song by a good band and there was an urge to tab it coz its 
so good and so here it is. Its my first tab by the way.
Standard Tuning 
/ = Slide
^ = Palm mute
* = Hold/ let ring
b = Bend

Intro:
Guitar 1:
e|-----------------------------------------------------------------------------------|
B|-----------------------------------------------------------------------------------|
G|------4-1--------------------2-1----------4-1--------------------------------------|
D|--2-2-----2-2/4-2/4-4/6-2--------4-2--2-2-----2-2/4-2/4-4/6-6/7-6-4-2---------2----|
A|--------------------------2-------------------------------------------2-2-4-2------|
E|-----------------------------------------------------------------------------------|

Guitar 2:
e|----------------------------------------------------------------------------------|
B|----------------------------------------------------------------------------------|
G|-----9-9-9-9-----------------------------9-9-9-9----------------------------------|
D|--9--9-9-9-9--9-9-9-9--7-7-7-7--9-9-7-7--9-9-9-9--9-9-9-9--7-7-7-7--9-9-9-9-------|
A|--9--7-7-7-7--9-9-9-9--7-7-7-7--9-9-7-7--7-7-7-7--9-9-9-9--7-7-7-7--9-9-9-9-------|
E|--7-----------7-7-7-7--5-5-5-5--7-7-5-5-----------7-7-7-7--5-5-5-5--7-7-7-7-------|
    *  ^ ^ ^ ^  ^ ^ ^ ^  ^ ^ ^ ^  ^ ^ ^ ^  ^ ^ ^ ^  ^ ^ ^ ^  ^ ^ ^ ^  ^ ^ ^ ^ 

Verse 1:
Guitar 1: 
e|------------------------------------------------------------------0----|
B|----------------------------------------------------------12-12/9-5----|
G|-----------9-9-9-9--7-7-7-7--7-7-7-9-----------9-9-9-9-----------------|
D|--7-7-7-7--9-9-9-9--7-7-7-7--7-7-7-9--7-7-7-7--9-9-9-9-----------------|
A|--7-7-7-7--7-7-7-7--5-5-5-5--5-5-5-7--7-7-7-7--7-7-7-7-----------------|
E|--5-5-5-5-----------------------------5-5-5-5--------------------------|
    ^ ^ ^ ^  ^ ^ ^ ^  ^ ^ ^ ^  ^ ^ ^ ^  ^ ^ ^ ^  ^ ^ ^ ^   

e|----------------------------------------------------------------------|
B|----------------------------------------------------------------------|
G|-----------9-9-9-9--7-7-7-7--7-7-7-9-----------9-9-9-9----------------|
D|--7-7-7-7--9-9-9-9--7-7-7-7--7-7-7-9--7-7-7-7--9-9-9-9---------7-9----|
A|--7-7-7-7--7-7-7-7--5-5-5-5--5-5-5-7--7-7-7-7--7-7-7-7----9-11--------|
E|--5-5-5-5-----------------------------5-5-5-5-------------------------|
    ^ ^ ^ ^  ^ ^ ^ ^  ^ ^ ^ ^  ^ ^ ^ ^  ^ ^ ^ ^  ^ ^ ^ ^   

Guitar 2:
e|----------------------------------------------------------------------------|
B|----------------------------------------------------------------------------|
G|-----------9-9-9-9--7-7-7-7--7-7-7-9-----------9-9-9-9--7-7-7-7--7-7-7-9----|
D|--7-7-7-7--9-9-9-9--7-7-7-7--7-7-7-9--7-7-7-7--9-9-9-9--7-7-7-7--7-7-7-9----|
A|--7-7-7-7--7-7-7-7--5-5-5-5--5-5-5-7--7-7-7-7--7-7-7-7--5-5-5-5--5-5-5-7----|
E|--5-5-5-5-----------------------------5-5-5-5-------------------------------|
    ^ ^ ^ ^  ^ ^ ^ ^  ^ ^ ^ ^  ^ ^ ^ ^  ^ ^ ^ ^  ^ ^ ^ ^  ^ ^ ^ ^  ^ ^ ^ ^ 

e|----------------------------------------------------------------------------|
B|----------------------------------------------------------------------------|
G|--------------------7-7-7-7--7-7-7-9--------------------7-7-7-7--7-7-7-9----|
D|--7-7-7-7--6-6-6-6--7-7-7-7--7-7-7-9--7-7-7-7--6-6-6-6--7-7-7-7--7-7-7-9----|
A|--7-7-7-7--6-6-6-6--5-5-5-5--5-5-5-7--7-7-7-7--6-6-6-6--5-5-5-5--5-5-5-7----|
E|--5-5-5-5--4-4-4-4--------------------5-5-5-5--4-4-4-4----------------------|
    ^ ^ ^ ^  ^ ^ ^ ^  ^ ^ ^ ^  ^ ^ ^ ^  ^ ^ ^ ^  ^ ^ ^ ^  ^ ^ ^ ^  ^ ^ ^ ^

Bridge 1:
Guitar 1:
e|------------------------------------------|
B|------------------------------------------|
G|------------------------------------------|
D|--4----6----7----9----4----6----7----9----|
A|--4----6----7----9----4----6----7----9----|
E|--2----4----5----7----2----4----5----7----|


Guitar 2:
e|-------------------------------------------------------------------------------|
B|-------------------------------------------------------------------------------|
G|-------------------------------------------------------------------------------|
D|--4----4/6----6/7----7/9----9/4----4/6----6/7----7/9--9-9-9-9-9-9-9-9-9-9-9-9--|
A|--4----4/6----6/7----7/9----9/4----4/6----6/7----7/9--9-9-9-9-9-9-9-9-9-9-9-9--|
E|--2----2/4----4/5----5/7----7/2----2/4----4/5----5/7--7-7-7-7-7-7-7-7-7-7-7-7--|
                                                       ^ ^ ^ ^ ^ ^ ^ ^ ^ ^ ^ ^

Chorus 1:
Guitar 1:
e|-----------------------------------------------------------------------------|
B|-----------------------------------------------------------------------------|
G|--9-9-9-9-----------------------------9-9-9-9-----------------------------9--|
D|--9-9-9-9--9-9-9-9--7-7-7-7--9-9-7-7--9-9-9-9--9-9-9-9--7-7-7-7--9-9-7-7--9--|
A|--7-7-7-7--9-9-9-9--7-7-7-7--9-9-7-7--7-7-7-7--9-9-9-9--7-7-7-7--9-9-7-7--7--|
E|-----------7-7-7-7--5-5-5-5--7-7-5-5-----------7-7-7-7--5-5-5-5--7-7-5-5-----|
    ^ ^ ^ ^  ^ ^ ^ ^  ^ ^ ^ ^  ^ ^ ^ ^  ^ ^ ^ ^  ^ ^ ^ ^  ^ ^ ^ ^  ^ ^ ^ ^  ^	

Guitar 2:
e|-----------------------------------------------------------------------------|
B|-----------------------------------------------------------------------------|
G|--9-9-9-9-----------------------------9-9-9-9-----------------------------9--|
D|--9-9-9-9--9-9-9-9--7-7-7-7--9-9-7-7--9-9-9-9--9-9-9-9--7-7-7-7--9-9-7-7--9--|
A|--7-7-7-7--9-9-9-9--7-7-7-7--9-9-7-7--7-7-7-7--9-9-9-9--7-7-7-7--9-9-7-7--7--|
E|-----------7-7-7-7--5-5-5-5--7-7-5-5-----------7-7-7-7--5-5-5-5--7-7-5-5-----|
    ^ ^ ^ ^  ^ ^ ^ ^  ^ ^ ^ ^  ^ ^ ^ ^  ^ ^ ^ ^  ^ ^ ^ ^  ^ ^ ^ ^  ^ ^ ^ ^  ^

Verse 2:
Guitar 1:
e|-----------------------------------------------------------------------|
B|-----------------------------------------------------------------------|
G|--9-----------9-9-9--7-7-7-7--7-7-7-9--------------------7-7----2-2-2--|
D|--9--7-7-7-7--9-9-9--7-7-7-7--7-7-7-9--------------------7-7----2-2-2--|
A|--7--7-7-7-7--7-7-7--5-5-5-5--5-5-5-7--7-7-7-7--7-7-7-7--5-5----2-2-2--|
E|-----5-5-5-5----------------------------5-5-5-5--4-4-4-4--------0-0-0--|
    ^  ^ ^ ^ ^  ^ ^ *  ^ ^ ^ ^  ^ ^ ^ ^                    ^ *    ^ ^ ^

e|--------------12-----------------------------------------------------|
B|------12---------------------------------------------------14--------|
G|--9b------9b------9b--11b--12b--11b--12b--11b--9b--11b--12b--14--16--|
D|---------------------------------------------------------------------|
A|---------------------------------------------------------------------|
E|---------------------------------------------------------------------|

Guitar 2:
e|--------------------------------------------------------------------------|
B|--------------------------------------------------------------------------|
G|-------------9-9-9-9--7-7-7-7--7-7-7-9--------------------7-7-7-7---------|
D|--6/7-7-7-7--9-9-9-9--7-7-7-7--7-7-7-9--7-7-7-7--6-6-6-6--7-7-7-7--2-2-2--|
A|--6/7-7-7-7--7-7-7-7--5-5-5-5--5-5-5-7--7-7-7-7--6-6-6-6--5-5-5-5--2-2-2--|
E|--4/5-5-5-5-----------------------------5-5-5-5--4-4-4-4-----------0-0-0--|
      ^ ^ ^ ^  ^ ^ ^ ^  ^ ^ ^ ^  ^ ^ ^ ^  ^ ^ ^ ^  ^ ^ ^ ^  ^ ^ ^ ^  ^ ^ ^ 

e|--------------------------------------------------------|
B|--------------------------------------------------------|
G|--7-7-7-7--9-9-9-9--------------------7-7-7-7--9-9-9-9--|
D|--7-7-7-7--9-9-9-9--7----6----4----2--7-7-7-7--9-9-9-9--|
A|--5-5-5-5--7-7-7-7--7----6----4----2--5-5-5-5--7-7-7-7--|
E|--------------------5----4----2----0--------------------|
    ^ ^ ^ ^  ^ ^ ^ ^                    ^ ^ ^ ^  ^ ^ ^ ^
[ Tab from: http://www.guitartabs.cc/tabs/g/goldfinger/counting_the_days_tab.html ]
Bridge 2:
Guitar 1:
e|-----------------------------------------------|
B|-----------------------------------------------|
G|-----------------------------------------------|
D|--4----6----7----9--8--7--6--4----6----7----9--|
A|--4----6----7----9--8--7--6--4----6----7----9--|
E|--2----4----5----7--6--5--4--2----4----5----7--|

Guitar 2:
e|-------------------------------------------------------------------------------|
B|-------------------------------------------------------------------------------|
G|-------------------------------------------------------------------------------|
D|--4----4/6----6/7----7/9----9/4----4/6----6/7----7/9--9-9-9-9-9-9-9-9-9-9-9-9--|
A|--4----4/6----6/7----7/9----9/4----4/6----6/7----7/9--9-9-9-9-9-9-9-9-9-9-9-9--|
E|--2----2/4----4/5----5/7----7/2----2/4----4/5----5/7--7-7-7-7-7-7-7-7-7-7-7-7--|
                                                        ^ ^ ^ ^ ^ ^ ^ ^ ^ ^ ^ ^


Chorus 2:
Guitar 1:
e|-----------------------------------------------------------|
B|-----------------------------------------------------------|
G|--9-9-9-9-----------------------------9-9-9-9-----------9--|
D|--9-9-9-9--9-9-9-9--7-7-7-7--9-9-7-7--9-9-9-9--9-9-7-7--9--|
A|--7-7-7-7--9-9-9-9--7-7-7-7--9-9-7-7--7-7-7-7--9-9-7-7--7--|
E|-----------7-7-7-7--5-5-5-5--7-7-5-5-----------7-7-5-5-----|
    ^ ^ ^ ^  ^ ^ ^ ^  ^ ^ ^ ^  ^ ^ ^ ^  ^ ^ ^ ^  ^ ^ ^ ^  ^     x 2

Guitar 2:
e|--------------------------------------|
B|--------------------------------------|
G|--9-9-9-9-----------------------------|
D|--9-9-9-9--9-9-9-9--7-7-7-7--9-9-7-7--|
A|--7-7-7-7--9-9-9-9--7-7-7-7--9-9-7-7--|
E|-----------7-7-7-7--5-5-5-5--7-7-5-5--|
    ^ ^ ^ ^  ^ ^ ^ ^  ^ ^ ^ ^  ^ ^ ^ ^     x 3

e|-----------------------------------------|
B|-----------------------------------------|
G|--9-9-9-9-----------9-9-9-9-----------9--|
D|--9-9-9-9--9-9-7-7--9-9-9-9--7-7-9-9--9--|
A|--7-7-7-7--9-9-7-7--7-7-7-7--7-7-9-9--7--|  [Note: last chord played when guitar 1
E|-----------7-7-5-5-----------5-5-7-7-----|         starts the middle section] 
    ^ ^ ^ ^  ^ ^ ^ ^  ^ ^ ^ ^  ^ ^ ^ ^  ^

Middle section:
Guitar 1:
e|-----0-------0-------0-------0----|
B|-------0-------0-------0-------0--|
G|--9-------8-------6-------8-------|
D|----------------------------------|
A|----------------------------------|
E|----------------------------------|  x 4

e|---------------------------------------------|
B|---------------------------------------------|
G|---------------------------------------------|
D|--2----6----7----9--9-9-9-9-9-9-9-9-9-9-9-9--|
A|--2----6----7----9--9-9-9-9-9-9-9-9-9-9-9-9--|
E|--0----4----5----7--7-7-7-7-7-7-7-7-7-7-7-7--|
                      ^ ^ ^ ^ ^ ^ ^ ^ ^ ^ ^ ^

Guitar 2: During the third time of guitar 1’s middle section…play
e|------------------------------------|
B|------------------------------------|
G|------------------------------------|
D|------------------------------------|
A|--1/2/1----1/2/1----1/2/1----1/2/1--|
E|------------------------------------|   x 2

e|--------------------------------------|
B|--------------------------------------|
G|--------------------------------------|
D|--2----2--6----6--7----7--9--9--9--9--|
A|--2----2--6----6--7----7--9--9--9--9--|
E|--0----0--4----4--5----5--7--7--7--7--|
                               ^  ^  ^

Chorus 3:
Guitar 1:
e|-----------------------------------------|
B|-----------------------------------------|
G|--9--------------9-----------------------|
D|--9----9----7----9----9----7----9-9-7-7--|
A|--7----9----7----7----9----7----9-9-7-7--|
E|-------7----5---------7----5----7-7-5-5--|

e|-----------------------------------------------------------|
B|-----------------------------------------------------------|
G|--9-9-9-9-----------------------------9-9-9-9-----------9--|
D|--9-9-9-9--9-9-9-9--7-7-7-7--9-9-7-7--9-9-9-9--9-9-7-7--9--|
A|--7-7-7-7--9-9-9-9--7-7-7-7--9-9-7-7--7-7-7-7--9-9-7-7--7--|
E|-----------7-7-7-7--5-5-5-5--7-7-5-5-----------7-7-5-5-----|
    ^ ^ ^ ^  ^ ^ ^ ^  ^ ^ ^ ^  ^ ^ ^ ^  ^ ^ ^ ^  ^ ^ ^ ^  ^

e|----------------------------------------------------------------------------------|
B|----------------------------------------------------------------------------------|
G|--9-9-9-9-----------------------------9-9-9-9-----------9-9-9-9--9-9-9-9--9----9--|
D|--9-9-9-9--9-9-9-9--7-7-7-7--9-9-7-7--9-9-9-9--9-9-7-7--9-9-9-9--9-9-9-9--9----9--|
A|--7-7-7-7--9-9-9-9--7-7-7-7--9-9-7-7--7-7-7-7--9-9-7-7--7-7-7-7--7-7-7-7--7----7--|
E|-----------7-7-7-7--5-5-5-5--7-7-5-5-----------7-7-5-5----------------------------|
    ^ ^ ^ ^  ^ ^ ^ ^  ^ ^ ^ ^  ^ ^ ^ ^  ^ ^ ^ ^  ^ ^ ^ ^  ^ ^ ^ ^  ^ ^ ^ ^  *    ^

Guitar 2:
e|---------------------------------------------------------------------|
B|---------------------------------------------------------------------|
G|--9--99--99--9999----------------------------------------------------|
D|--9--99--99--9999--9--99--99--9999--7--77--77--7777--999999--777777--|
A|--7--77--77--7777--9--99--99--9999--7--77--77--7777--999999--777777--|
E|-------------------7--77--77--7777--5--55--55--5555--777777--555555--| 
    ^  ^^  ^^  ^^^^  ^  ^^  ^^  ^^^^  ^  ^^  ^^  ^^^^  ^^^^^^  ^^^^^^     x 2

e|--------------------------------------------------------------------------|
B|--------------------------------------------------------------------------|
G|--9-9-9-9-----------------------------9-9-9-9-----------------------------|
D|--9-9-9-9--9-9-9-9--7-7-7-7--9-9-7-7--9-9-9-9--9-9-9-9--7-7-7-7--9-9-7-7--|
A|--7-7-7-7--9-9-9-9--7-7-7-7--9-9-7-7--7-7-7-7--9-9-9-9--7-7-7-7--9-9-7-7--|
E|-----------7-7-7-7--5-5-5-5--7-7-5-5-----------7-7-7-7--5-5-5-5--7-7-5-5--|
    ^ ^ ^ ^  ^ ^ ^ ^  ^ ^ ^ ^  ^ ^ ^ ^  ^ ^ ^ ^  ^ ^ ^ ^  ^ ^ ^ ^  ^ ^ ^ ^

e|----------------------------------------------------------------------------------|
B|----------------------------------------------------------------------------------|
G|--9-9-9-9-----------------------------9-9-9-9-------------------------------------|
D|--9-9-9-9--9-9-9-9--7-7-7-7--9-9-7-7--9-9-9-9--9-9-7-7--2-6-9-2--7-7-9-9--2----2--|
A|--7-7-7-7--9-9-9-9--7-7-7-7--9-9-7-7--7-7-7-7--9-9-7-7--2-6-9-2--7-7-9-9--2----2--|
E|-----------7-7-7-7--5-5-5-5--7-7-5-5-----------7-7-5-5--0-4-7-0--5-5-7-7--0----0--|
    ^ ^ ^ ^  ^ ^ ^ ^  ^ ^ ^ ^  ^ ^ ^ ^  ^ ^ ^ ^  ^ ^ ^ ^  ^ ^ ^ ^  ^ ^ ^ ^  ^    ^


Here it is…my first tab. I know it’s not a 100% correct but I think it’s pretty accurate.
There were some places where I didn’t know what the hell was going on! If there are any 
mistakes on this tab, and I know there are quite a few just e-mail me and let me know at 
calm_like_a_bomb15@hotmail.com. I’ve also tabbed the bass for this song so look out for 
that which I will submit very soon. I haven’t actually tried playing all three parts 
together so you lot could be the first ones. So tell me what you all think. I don’t care 
if you like it or hate it. L8az all. ===============================================================================

Lyrics:

Verse 1:
So here I go, there you went again,
Just another stupid thing that I’ve done wrong.
Locked up in my head, knocked down, beaten, left for dead. 
And all those brilliant things I should have said.
Bridge: 
I gotta get away, find something to do,
But everything I hear, everything I see reminds me of you.
Chorus: 
Still counting the days I’ve been without you, one two three four,
Still counting the days that you’ve been gone.
Verse 2:
Day one, as no fun,
Day two, I hated you,
By day three I wish you’d come right back to me.
Day four five and six,
I guess you just don’t give a shit,
Day seven, this is hell, this is hell.
Bridge…
Chorus…
Middle section:
A thousand things I want to say to you, but its too late now,
A thousand things I want to say.
A thousand things I want to say to you, but its too late now,
A thousand things I want to say.
Chorus…
Comments