Goldfinger - Bro Chords & Tabs

 

Bro Chords & Tabs

Goldfinger Chords & Tabs

Version: 2 Type: Tab 0 ratings
1 star 2 stars 3 stars 4 stars 5 stars
comments

Bro Tab

--------------------------------------------------------------------------- 
BRO - Goldfinger 
--------------------------------------------------------------------------- 

submitted by:turtleman983

INTRO: 
e|------------------------------------------------------------------------| 
B|------------------------------------------------------------------------| 
G|------------------------------------------------------------------------| 
D|-----------------------------------------(x4)---------------------------| 
A|---4-4---0---2-2--------------------------------------------------------| 
E|------------------4-4---0---2-4-2-0-------------------------------------| 
[ Tab from: http://www.guitartabs.cc/tabs/g/goldfinger/bro_tab_ver_2.html ]
CHORUS: 
e|------------------------------------------------------------------------| 
B|------------------------------------------------------------------------| 
G|------------------------------------------------------------------------| 
D|---6-6---2---4-4------------------------------(x4)----------------------| 
A|---4-4---0---2-2--6-6---2---4-6-4-2-------------------------------------| 
E|------------------4-4---0---2-4-2-0-------------------------------------|

VERSE: 
e|-----------------------------|--------- 
B|-----------------------------|--------- 
G|-----------------------------|--------- 
D|-3---------------3-3--2-(x2)-|-3--4--5- (2nd time only) 
A|-1--2-2-2-2-2-2--1-1--0- ----|-1--2--3- 
E|----0-0-0-0-0-0--------------|---------
Comments