Goldfinger - Anxiety Chords & Tabs

 

Anxiety Chords & Tabs

Goldfinger Chords & Tabs

Version: 2 Type: Bass Tab 0 ratings
1 star 2 stars 3 stars 4 stars 5 stars
comments

Anxiety Bass Tab

Goldfinger
Anxiety
Bass Tab


Intro: 
g-------------------------------------------------- 
d-------------------------------------------------- 
a--2----------8- 9-11-11-11------------------------ 
E--------11---------------------------------------- 
[ Tab from: http://www.guitartabs.cc/tabs/g/goldfinger/anxiety_btab_ver_2.html ]
Verse: 
g-------------------------------------------------- 
d-------------------------------------------------- 
a----------9--9--9--11-11-11--7-7-7---------------- 
E--7-7-7------------------------------------------- 

Pre-Chorus: 
g------------------------------------------------ 
d------------------------------------------------ 
a--2-2-2-2-2--0-0-0-0-0-------------------------- 
E------------------------0-0-0-0-0-0------------- 
  
Chorus: 
g--------------------------------------------------- 
d--------------------------------------------------- 
a--2-2-2-2-2-2--------------------------2-2-2-2-2-2- 

tabbed out by matt kessler

E---------------0-0-0-0-0--2-2-2-2-2-2--------------
Comments