Goldfinger - Answers Chords & Tabs

 

Answers Chords & Tabs

Goldfinger Chords & Tabs

Version: 3 Type: Bass Tab 0 ratings
1 star 2 stars 3 stars 4 stars 5 stars
comments

Answers Bass Tab

Intro:                                                             x3
G|-----------------------------------------------------------------|
D|-----------------------------------------------------------------|
A|-5-5---5---------5-5---5---------5-5---5---------5-5---5-----8---|
E|---------5-5---5---------3-3---3---------5-5---5---------6-6---8-|

G|-----------------------------------------------------------------|
D|-----------------------------------------------------------------|
A|-5-5---5---------5-5---5---------5-5---5---------5-5---5---------|
E|---------5-5---5---------3-3---3---------5-5---5---------6-6-3---|
[ Tab from: http://www.guitartabs.cc/tabs/g/goldfinger/answers_btab_ver_3.html ]
Verse/Chorus:
G|-----------------------------------------------------------------|
D|-----------------------------------------------------------------|
A|-5-5---5---------5-5---5---------5-5---5---------5-5---5---------|
E|---------5-5---5---------3-3---3---------5-5---5---------6-6---6-|

G|-----------------------------------------------------|-----------|
D|-----------------------------------------------------|-----------|
A|-5-5---5---------5-5---5---------5-5---5---------5-5-|-5-----5---|
E|---------5-5---5---------3-3---3---------5-5---5-----|---6-6---6-|

Pre-chorus: 
G|----------------------------|
D|-*-*------------*-*---------|
A|-3-5--------3-*-3-5-*-"-8-7-|
E|-----3333333-356----3-5-----|

Play Chorus    (ending with: 
		G|------------|
		D|------------|
		A|-5-----3----|
		E|---6-6----3-|)

Intro to second Verse:
G|---------|
D|----"----|
A|-081087--|
Comments