Goldfinger - 99 Red Balloons Chords & Tabs

 

99 Red Balloons Chords & Tabs

Goldfinger Chords & Tabs

Version: 9 Type: Tab 0 ratings
1 star 2 stars 3 stars 4 stars 5 stars
comments

99 Red Balloons Tab

Song: 99 red baloons
Artist: Goldfinger
tuning: standard
Tabbed by: Marnus van der merwe (inxman00@yahoo.com)
                                                               

Ok, heres the intro bit. first strum and let ring, then when he starts singing,
you go over into some palm muting with a clean guitar

E||-------------------|-------------------|-------------------|
B||-------------------|-------------------|-------------------|
G||-------------------|-------------------|-------------------|
D||--2----------------|--4----------------|--7----------------|
A||--2----------------|--4----------------|--7----------------|
E||--0----------------|--2----------------|--5----------------|


                     
-------------------||
-------------------||
-------------------||
--9----------------||
--9----------------||
--7----------------||


heres that nice and heavy riff. lots of strumming, with the gain crancked up, along with
the volume and the bass.


E||--------------------|--------------------------------------|
B||--------------------|--------------------------------------|
G||--------------------|--------------------------------------|
D||-----------------14-|---14-11--14--11-----------14---11-14-|
A||-----------------14-|---14-11--14--11-----------14---11-14-|
E||-----------------12-|---12-9---12--9---14-16-14-12---9--12-|


                                  
---------------------------------|
---------------------------------|
---------------------------------|
---14-11--14--11--9--9--9-11--14-|
---14-11--14--11--9--9--9-11--14-|
---12-9---12--9---7--7--7-9---12-|


                                       
--------------------------------------|
--------------------------------------|
--------------------------------------|
---14-11--14--11-----------14---11-14-|
---14-11--14--11-----------14---11-14-|
---12-9---12--9---14-16-14-12---9--12-|


                                       
--------------------------------------|
--------------------------------------|
--------------------------------------|
---14-11--14--11--9--9--9--9--11--11--|
---14-11--14--11--9--9--9--9--11--11--|
---12-9---12--9---7--7--7--7--9---9---|

[ Tab from: http://www.guitartabs.cc/tabs/g/goldfinger/99_red_balloons_tab_ver_9.html ]
                                       
--------------------------------------|
--------------------------------------|
--------------------------------------|
---14-11--14--11-----------14---11-14-|
---14-11--14--11-----------14---11-14-|
---12-9---12--9---14-16-14-12---9--12-|


                                  
---------------------------------|
---------------------------------|
---------------------------------|
---14-11--14--11--9--9--9-11--14-|
---14-11--14--11--9--9--9-11--14-|
---12-9---12--9---7--7--7-9---12-|


                                       
--------------------------------------|
--------------------------------------|
--------------------------------------|
---14-11--14--11-----------14---11-14-|
---14-11--14--11-----------14---11-14-|
---12-9---12--9---14-16-14-12---9--12-|


                                       
-------------------------------------||
-------------------------------------||
-------------------------------------||
---14-11--14--11--9-9-9-9-9-11-11-11-||
---14-11--14--11--9-9-9-9-9-11-11-11-||
---12-9---12--9---7-7-7-7-7-9--9--9--||


then you go into the intro bit with some distortion followed by the solo

E||--------------------------------|------------------------------|
B||--------------------------------|------------------------------|
G||--11--13-9---13--11--9------13--|--11--9-9-------9-----9--11---|
D||-----------------------11-------|------------11-----11---------|
A||--------------------------------|------------------------------|
E||--------------------------------|------------------------------|


                                                                 
--------------------------------|------------------------------||
--------------------------------|----------------12--9-----9---||
--11--13-9---13--11--9------13--|--11--9-9-------------11------||
-----------------------11-------|------------11----------------||
--------------------------------|------------------------------||
--------------------------------|------------------------------||

and there you have it, listen to the song, and you should get it. i know i've left some parts out,
but you people need a bit of A challenge:) email me for suggestions
Comments