Goldfinger - 99 Red Balloons Chords & Tabs

 

99 Red Balloons Chords & Tabs

Goldfinger Chords & Tabs

Version: 8 Type: Tab 0 ratings
1 star 2 stars 3 stars 4 stars 5 stars
comments

99 Red Balloons Tab

  Tabber: Connor G.
  Tuning: Standard
  Song: 99 Red Balloons
  Artist: Goldfinger ( the original is nena )
  
    Intro ( in the distance )
  e-----------------------------------|
  B-----------------------------------|
  G-----------------------------------|
  D-----------------------------------|
  A-----------------------------------|
  E00000000-22222222-55555555-77777777|

  e---------------------------|
  B---------------------------|
  G---------------------------|
  D-2-2-2---------2-2-2-------|x2
  A----4-4--(4)------4-4-2----|
  E------------------------(0)|
 main riff
  e---------------------------------|
  B---------------------------------|
  G---------------------------------|
  D-2-2-2------------2-2-2----------|
  A----4-4--------------4-4--2-2-2-4|
  E--------2-4-2-(0)----------------|

  e--------------------------------------|
  B--------------------------------------|
  G--------------------------------------|
  D-2-2-2------------2-2-2---------------|
  A----4-4--------------4-4--4-2-2--4-2-2|
  E--------2-4-2-(0)---------------------|

  e---------------------------------|
  B---------------------------------|
  G---------------------------------|
  D-2-2-2------------2-2-2----------|
  A----4-4--------------4-4--2-2-2-4|
  E--------2-4-2-(0)----------------|

  e-------------------------------------|
  B-------------------------------------|
  G-------------------------------------|
  D-2-2----------2-2-2------------------|
  A--4-4------------4-4--2-2-2-2-2-2-2-2|
  E------2-4-2-(0)----------------------|
    
  e-----------------------------------|
  B-----------------------------------|
  G-----------------------------------|
  D---------44444444-77777777-99999999| x2
  A---------44444444-77777777-99999999|
  E00000000-22222222-55555555-77777777|

  e------------------------------------|
  B------------------------------------|
  G------------------------------------|
  D----------4-4-4-4--7-7-7-7--9-9-9-9-|
  A----------4-4-4-4--7-7-7-7--9-9-9-9-|
  E-0-0-0-0--2-2-2-2--5-5-5-5--7-7-7-7-|

  e-----------------------------------|
  B-----------------------------------|
  G-----------------------------------|
  D---------44444444-77777777-99999999| 
  A---------44444444-77777777-99999999|
  E00000000-22222222-55555555-77777777|
  Solo
  e-2-4-0--4-2-0--4-2-0-0-0-0-2-|
  B-------------2--------2-2----|
  G-----------------------------|
  D-----------------------------|
  A-----------------------------| 
  E-----------------------------|

  e-2-4-0--4-2-0--4-2-0-0--7-4-2-4|
  B-------------2--------2--------|
  G-------------------------------|
  D-------------------------------|
  A-------------------------------|
  E-------------------------------|

  e-----------------------------------|
  B-----------------------------------|
  G-----------------------------------|
  D---------------------------99999999|x2
  A---------------------------99999999|
  E00000000-22222222-55555555-77777777|

  e----------------------------------|
  B----------------------------------|
  G----------------------------------|
  D-------4-4---7-7---9-9-9-9-9-9-9-9|
  A-------4-4---7-7---9-9-9-9-9-9-9-9|
  E-0-0---2-2---5-5---7-7-7-7-7-7-7-7|
[ Tab from: http://www.guitartabs.cc/tabs/g/goldfinger/99_red_balloons_tab_ver_8.html ]
  e-----------------------------------|
  B-----------------------------------|
  G-----------------------------------|
  D---------44444444-77777777-99999999| 
  A---------44444444-77777777-99999999|
  E00000000-22222222-55555555-77777777|

  e---------------------------|
  B---------------------------|
  G---------------------------|
  D-2-2-2---------2-2-2-------|
  A----4-4--(4)------4-4-2----|
  E------------------------(0)|

  e---------------------------------|
  B---------------------------------|
  G---------------------------------|
  D-2-2-2------------2-2-2----------|
  A----4-4--------------4-4--2-2-2-4|
  E--------2-4-2-(0)----------------|

  e--------------------------------------|
  B--------------------------------------|
  G--------------------------------------|
  D-2-2-2------------2-2-2---------------|
  A----4-4--------------4-4--4-2-2--4-2-2|
  E--------2-4-2-(0)---------------------|

  e---------------------------------|
  B---------------------------------|
  G---------------------------------|
  D-2-2-2------------2-2-2----------|
  A----4-4--------------4-4--2-2-2-4|
  E--------2-4-2-(0)----------------|

  e-------------------------------------|
  B-------------------------------------|
  G-------------------------------------|
  D-2-2----------2-2-2------------------|
  A--4-4------------4-4--2-2-2-2-2-2-2-2|
  E------2-4-2-(0)----------------------|
    
  e-----------------------------------|
  B-----------------------------------|
  G-----------------------------------|
  D---------44444444-77777777-99999999| x3
  A---------44444444-77777777-99999999|
  E00000000-22222222-55555555-77777777|

  e------------------------------------|
  B------------------------------------|
  G------------------------------------|
  D----------4-4-4-4--7-7-7-7--9-9-9-9-|
  A----------4-4-4-4--7-7-7-7--9-9-9-9-|
  E-0-0-0-0--2-2-2-2--5-5-5-5--7-7-7-7-|
 Back to solo
  e-2-4-0--4-2-0--4-2-0-0-0-0-2-|
  B-------------2--------2-2----|
  G-----------------------------|
  D-----------------------------|
  A-----------------------------| 
  E-----------------------------|

  e-2-4-0--4-2-0--4-2-0-0--7-4-2-4|
  B-------------2--------2--------|
  G-------------------------------|
  D-------------------------------|
  A-------------------------------|
  E-------------------------------|

  e-0-2-2-2-2-0-0-0--0-2-2-2-2-0-0-0|
  B---------------------------------|
  G---------------------------------|
  D---------------------------------|x2
  A---------------------------------|
  E---------------------------------|

  e-7-7-4--7-7-4--7-7-4|
  B--------------------|
  G--------------------|
  D--------------------|x2
  A--------------------|
  E--------------------|

  e-7-7-4\-2-2-2-2-4---|
  B--------------------| 
  G--------------------|
  D--------------------|
  A--------------------|
  E-------------------0|

  e-0-0-0-0-0--2-2-2-2-2--5-5-5-5-5-7-7-7---(0)|
  B--------------------------------------------|
  G--------------------------------------------|
  D--------------------------------------------|
  A--------------------------------------------|
  E--------------------------------------------|
Wow thats the longest tab I ever wrote, please vote!!!
Comments