Goldfinger - 99 Red Balloons Chords & Tabs

 

99 Red Balloons Chords & Tabs

Goldfinger Chords & Tabs

Version: 5 Type: Tab 0 ratings
1 star 2 stars 3 stars 4 stars 5 stars
comments

99 Red Balloons Tab

   
Tabbed by: MT_Beaver_2000@hotmail.com
 
Clean

  E    E        F#       A        B
|-0----0-0-0----2-2-2----5-5-5----7-7-7------------------------------|
|-0----0-0-0----2-2-2----5-5-5----7-7-7------------------------------|   Play First E with volume
|-1----1-1-1----2-2-2----6-6-6----8-8-8------------------------------|   turned all the way down then
|-2----2-2-2----4-4-4----7-7-7----9-9-9------------------------------|X1 increase the volume slowly
|-2----2-2-2----4-4-4----7-7-7----9-9-9------------------------------|
|-0----0-0-0----2-2-2----5-5-5----7-7-7------------------------------|

|--------------------------------------------------------------------|
|--------------------------------------------------------------------|   Let up on the muting 
|--------------------------------------------------------------------|   on the last chord the
|--2-2-2-2-2-2-2-2-4-4-4-4-4-4-4-4-7-7-7-7-7-7-7-7-9-9-9-9-9-9-9-9---|X2 second time around
|--2-2-2-2-2-2-2-2-4-4-4-4-4-4-4-4-7-7-7-7-7-7-7-7-9-9-9-9-9-9-9-9---|
|--0-0-0-0-0-0-0-0-2-2-2-2-2-2-2-2-5-5-5-5-5-5-5-5-7-7-7-7-7-7-7-7---|

PM|---------------------------------------------------------------|


|--0---0--0--0--0-0-2---2--2--2--2-2-5---5--5--5--5-5-7---7--7--7--7-7-|
|--0---0--0--0--0-0-2---2--2--2--2-2-5---5--5--5--5-5-7---7--7--7--7-7-|
|--1---1--1--1--1-1-2---2--2--2--2-2-6---6--6--6--6-6-8---8--8--8--8-8-|
|--2---2--2--2--2-2-4---4--4--4--4-4-7---7--7--7--7-7-9---9--9--9--9-9-|X2
|--2---2--2--2--2-2-4---4--4--4--4-4-7---7--7--7--7-7-9---9--9--9--9-9-|
|--0---0--0--0--0-0-2---2--2--2--2-2-5---5--5--5--5-5-7---7--7--7--7-7-|

|----------------------------------------------------------|
|----------------------------------------------------------|
|--9-x-x-9-x-x-9-9-----------------------------------------|
|--x-x-x-x-x-x-x-x-----------------------------------------|
|--7-x-x-7-x-x-7-7-----------------------------------------|X4
|----------------------------------------------------------|

 Heavy Distortion
|---------------------------------------------------------|
|---------------------------------------------------------|
|---------------------------------------------------------|
|---2-2---2------------2-2---2---4-4-4/6------------------|
|-------4---4--------------4---4-2-2-2/4------------------|
|-------------2h4p2p0-------------------------------------|

|---------------------------------------------------------|
|---------------------------------------------------------|
|---------------------------------------------------------|
|---2-2---2------------2-2---2----4-x-x-4-x-x-------------|
|-------4---4--------------4---4--2-x-x-2-x-x-------------|
|-------------2h4p2p0-------------------------------------|

|---------------------------------------------------------|
|---------------------------------------------------------|
|---------------------------------------------------------|
|---2---2------------2-2---2---4-4-4/6--------------------|
|-----4---4--------------4---4-2-2-2/4--------------------|
|-----------2h4p2p0---------------------------------------|

|---------------------------------------------------------|
|---------------------------------------------------------|
|---------------------------------------------------------|
|---2-2---2------------2-2---2----2-2-2-2-2-2-2-2---------|
|-------4---4--------------4---4--2-2-2-2-2-2-2-2---------|
|-------------2h4p2p0-------------0-0-0-0-0-0-0-0---------|

 Distortion
|----------------------------------------------------------------------|
|----------------------------------------------------------------------|
|----------------------------------------------------------------------|
|--2---2--2--2--2-2-4---4--4--4--4-4-7---7--7--7--7-7-9---9--9--9--9-9-|X2
|--2---2--2--2--2-2-4---4--4--4--4-4-7---7--7--7--7-7-9---9--9--9--9-9-|
|--0---0--0--0--0-0-2---2--2--2--2-2-5---5--5--5--5-5-7---7--7--7--7-7-|

|---------------------------------------------------------|
|---------------------------------------------------------|
|---------------------------------------------------------|X1 Strike each chord then
|--2-2-2-2---4-4-4-4---7-7-7-7---9-9-9-9------------------|   relax your fretting hand
|--2-2-2-2---4-4-4-4---7-7-7-7---9-9-9-9------------------|
|--0-0-0-0---2-2-2-2---5-5-5-5---7-7-7-7------------------|

|----------------------------------------------------------------------|
|----------------------------------------------------------------------|
|----------------------------------------------------------------------|
|--2---2--2--2--2-2-4---4--4--4--4-4-7---7--7--7--7-7-9---9--9--9--9-9-|X1
|--2---2--2--2--2-2-4---4--4--4--4-4-7---7--7--7--7-7-9---9--9--9--9-9-|
|--0---0--0--0--0-0-2---2--2--2--2-2-5---5--5--5--5-5-7---7--7--7--7-7-|

 Solo

 Distortion
|---------------------------------------------------------|
|------9---9----------9----------9------------------------|
|--/11---9---11--9------11--9-9~---9----9--11-11----------|
|------------------11----------------11-------------------|
|---------------------------------------------------------|
|---------------------------------------------------------|

|---------------------------------------------------------|
|------9---9----------9----------9--12--9----9------------|
|--/11---9---11--9------11--9-9~----------11--------------|
|------------------11-------------------------------------|
|---------------------------------------------------------|
|---------------------------------------------------------|
[ Tab from: http://www.guitartabs.cc/tabs/g/goldfinger/99_red_balloons_tab_ver_5.html ]
 Distortion
|--------------------------------------------------------------------|
|--------------------------------------------------------------------|   Let up on the muting
|--------------------------------------------------------------------|   on the last chord the
|--2-2-2-2-2-2-2-2-4-4-4-4-4-4-4-4-7-7-7-7-7-7-7-7-9-9-9-9-9-9-9-9---|X2 second time around
|--2-2-2-2-2-2-2-2-4-4-4-4-4-4-4-4-7-7-7-7-7-7-7-7-9-9-9-9-9-9-9-9---|
|--0-0-0-0-0-0-0-0-2-2-2-2-2-2-2-2-5-5-5-5-5-5-5-5-7-7-7-7-7-7-7-7---|

PM|---------------------------------------------------------------|

 Distortion
|---------------------------------------------------------|
|---------------------------------------------------------|
|---------------------------------------------------------|
|--2-2---4-4---7-7---9-9-9-9-9-9-9-9----------------------|X1
|--2-2---4-4---7-7---9-9-9-9-9-9-9-9----------------------|
|--0-0---2-2---5-5---7-7-7-7-7-7-7-7----------------------|

|---------------------------------------------------------|
|---------------------------------------------------------|
|---------------------------------------------------------|X1 Strike each chord then
|--2-2-2-2---4-4-4-4---7-7-7-7---9-9-9-9------------------|   relax your fretting hand
|--2-2-2-2---4-4-4-4---7-7-7-7---9-9-9-9------------------|
|--0-0-0-0---2-2-2-2---5-5-5-5---7-7-7-7------------------|

|----------------------------------------------------------|
|--------------------------This is played under------------|
|--9-x-x-9-x-x-9-9-----------------------------------------|X4
|--x-x-x-x-x-x-x-x--------2-2---2-----2-2---2--------------|
|--7-x-x-7-x-x-7-7------------4---4-------4---4------------|
|----------------------------------------------------------|

 Heavy Distortion
|---------------------------------------------------------|
|---------------------------------------------------------|
|---------------------------------------------------------|
|---2-2---2------------2-2---2---4-4-4/6------------------|
|-------4---4--------------4---4-2-2-2/4------------------|
|-------------2h4p2p0-------------------------------------|

|---------------------------------------------------------|
|---------------------------------------------------------|
|---------------------------------------------------------|
|---2-2---2------------2-2---2----4-x-x-4-x-x-------------|
|-------4---4--------------4---4--2-x-x-2-x-x-------------|
|-------------2h4p2p0-------------------------------------|

|---------------------------------------------------------|
|---------------------------------------------------------|
|---------------------------------------------------------|
|---2---2------------2-2---2---4-4-4/6--------------------|
|-----4---4--------------4---4-2-2-2/4--------------------|
|-----------2h4p2p0---------------------------------------|

|---------------------------------------------------------|
|---------------------------------------------------------|
|---------------------------------------------------------|
|---2-2---2------------2-2---2----2-2-2-2-2-2-2-2---------|
|-------4---4--------------4---4--2-2-2-2-2-2-2-2---------|
|-------------2h4p2p0-------------0-0-0-0-0-0-0-0---------|

 Distortion
|----------------------------------------------------------------------|
|----------------------------------------------------------------------|
|----------------------------------------------------------------------|
|--2---2--2--2--2-2-4---4--4--4--4-4-7---7--7--7--7-7-9---9--9--9--9-9-|X3
|--2---2--2--2--2-2-4---4--4--4--4-4-7---7--7--7--7-7-9---9--9--9--9-9-|
|--0---0--0--0--0-0-2---2--2--2--2-2-5---5--5--5--5-5-7---7--7--7--7-7-|

|---------------------------------------------------------|
|---------------------------------------------------------|
|---------------------------------------------------------|X1 Strike each chord then 
|--2-2-2-2---4-4-4-4---7-7-7-7---9-9-9-9------------------|   relax your fretting hand
|--2-2-2-2---4-4-4-4---7-7-7-7---9-9-9-9------------------|
|--0-0-0-0---2-2-2-2---5-5-5-5---7-7-7-7------------------|

Solo

 Distortion
|---------------------------------------------------------|
|------9---9----------9----------9------------------------|
|--/11---9---11--9------11--9-9~---9----9--11-11----------|
|------------------11----------------11-------------------|
|---------------------------------------------------------|
|---------------------------------------------------------|

|---------------------------------------------------------|
|------9---9----------9----------9--12--9----9------------|
|--/11---9---11--9------11--9-9~----------11--------------|
|------------------11-------------------------------------|
|---------------------------------------------------------|
|---------------------------------------------------------|

|---------------------------------------------------------|
|---------------------X4------12-12-9-12-12p9-9-9-12-12---|
|--9/11-11-11-11\9-9-9------------------------------------|
|---------------------------------------------------------|
|---------------------------------------------------------|
|---------------------------------------------------------|

|---------------------------------------------------------|
|--9-12-12p9-9-9-12p9-12-12-9-12-12p9-9-9\----------------|
|-------------------------------------------9999/11-------|
|-------------------------------------------9999/11--2----|
|-------------------------------------------7777/9---2----|
|----------------------------------------------------0----|

Clean

   E                F#               A                B
|--0---0--0--0--0-0-2---2--2--2--2-2-5---5--5--5--5-5-7---7--7--7--7-7-|
|--0---0--0--0--0-0-2---2--2--2--2-2-5---5--5--5--5-5-7---7--7--7--7-7-|
|--1---1--1--1--1-1-2---2--2--2--2-2-6---6--6--6--6-6-8---8--8--8--8-8-|
|--2---2--2--2--2-2-4---4--4--4--4-4-7---7--7--7--7-7-9---9--9--9--9-9-|X4
|--2---2--2--2--2-2-4---4--4--4--4-4-7---7--7--7--7-7-9---9--9--9--9-9-|
|--0---0--0--0--0-0-2---2--2--2--2-2-5---5--5--5--5-5-7---7--7--7--7-7-|
Comments