Goldfinger - 99 Red Balloons Chords & Tabs

 

99 Red Balloons Chords & Tabs

Goldfinger Chords & Tabs

Version: 6 Type: Bass Tab 0 ratings
1 star 2 stars 3 stars 4 stars 5 stars
comments

99 Red Balloons Bass Tab

Intro:
G--------------------------------|
D--------------------------------|
A----------------0(8x)-2(8x------|    4x
E----0(8x)-2(8x)-----------------|

---------p9-p9---------p9--------------|p9
---------------------------------------|
---------------------------------------|     2x
----0-----------0----------------------|

-------------------------------------------|
-------------------------------------------|
-7-7-7-----------7-7-7---------------------|
----9-9-2-h4-p2-0---9-9-7-7-7-9------------|

-------------------------------------------------|
-------------------------------------------------|
-7-7-7-----------7-7-7---------------------------|
----9-9-2-h4-p2-0---9-9-777-777-79---------------|

---------------------------------------|
---------------------------------------|
-------7-7-7---------------------------|
--9-2-h4-p2-0---9-9-7-7-7-9------------|

-------------------------|
-------------------------|
-7-7-7-------------------|
----9-9-777-777-7--------|

------------------------------|
------------------------------|
----------0(8x)-2(8x)       1-|0x
-0(8x)-2(8x)------------------|
[ Tab from: http://www.guitartabs.cc/tabs/g/goldfinger/99_red_balloons_btab_ver_6.html ]
---------------------|
---------------------|
---------00-22-------|
-00-22---------------|

----------------------------------|
----------------------------------|
-----------------0(8x)-2----------|(8x)
-0(8x)-2(8x)----------------------|

---------p9-p9---------p9--------------|p9
---------------------------------------|
---------------------------------------|     2x
----0-----------0----------------------|

-------------------------------------------|
-------------------------------------------|
-7-7-7-----------7-7-7---------------------|
----9-9-2-h4-p2-0---9-9-7-7-7-9------------|

-------------------------------------------------|
-------------------------------------------------|
-7-7-7-----------7-7-7---------------------------|
----9-9-2-h4-p2-0---9-9-777-777-79---------------|

---------------------------------------|
---------------------------------------|
-------7-7-7---------------------------|
--9-2-h4-p2-0---9-9-7-7-7-9------------|

-------------------------|
-------------------------|
-7-7-7-------------------|
----9-9-777-777-7--------|

German part:
------------------------------|
------------------------------|
----------0(8x)-2(8x)       1-|0x
-0(8x)-2(8x)------------------|
Comments