Goldfinger - 99 Red Balloons Chords & Tabs

 

99 Red Balloons Chords & Tabs

Goldfinger Chords & Tabs

Version: 5 Type: Bass Tab 0 ratings
1 star 2 stars 3 stars 4 stars 5 stars
comments

99 Red Balloons Bass Tab

   
99 red ballons (right tab)
goldfinger

/= slide
hp= hammer & press
>= play 8 times
~=let ring

this is my third tab, its right. so dont worry
this is a good song.

intro
    "Back at base bugs in the software, flash the message something's out there..."
G)---------------------------|
D)---------------------------|
A)---------0--2/--------0--2-|
E)-9/0--2---------0--2-------|

G)-------9-9---------9-9---9------|
D)--------------------------------|
A)--------------------------------|
E)--0~----------0~-------------0--|

G)------------------------------------------------------|
D)--2-2---2---4h6p42------2-2----2-----2----------------|
A)------4---4-----------------------4-----4--2-2-24-----|            x2
E)------------------------------------------------------|

Then
G)--------------------|
D)--2-2---2---4h6p42--|
A)------4---4---------|
E)--------------------|

G)-----------------------|
D)--2-2-2---2------------|
A)--------4---22222222---|
E)-----------------------|

     "99 red balloons floating in the summer sky, Panic bells its red alert..."
G)---------------------|
D)---------------------|
A)------------0>---2>--| x8
E)--0>---2>------------|

"This is it boys this is war"
G)--------------------------|
D)--------------------------|
A)----------------0-0--0-2>-|
E)--0-0--0-2-2--2-----------|

G)--------------------------------|
D)------------------------------2-|
A)------------0>---2>-2-2-2-2-4---|
E)--0>---2>-----------------------|
[ Tab from: http://www.guitartabs.cc/tabs/g/goldfinger/99_red_balloons_btab_ver_5.html ]
G)--------9-9--------9-9---9------|
D)--------------------------------|
A)--------------------------------|
E)--0~----------0~-------------0--|

G)----------------------------------------------|
D)--2-2---2---4h6p42---2-2---2----2-------------|             x2
A)------4---4-------------------4----4--2-2-24--|
E)----------------------------------------------|

Then.
G)--------------------|
D)--2-2---2---4h6p42--|
A)------4---4---------|
E)--------------------|

G)-------------------------|
D)--2-2-2---2--------------|
A)--------4---4--22222222--|
E)-------------------------|

   "99 Kriegsminister streichholz und benzinkanister..."
G)----------------------|
D)----------------------|
A)------------0>---2>---| x5
E)--0>---2>-------------|

G)-----------------------------|
D)-----------------------------|
A)-7h9p7-9-7h9p7-9-7h9p7-9-9/0-|
E)-----------------------------|

G)----------------------|
D)----------------------|
A)----------------------|
E)--0>---2>---5>---7/---|

On the 8th time do:
G)------------------------------|
D)-------------------------2~---|
A)------------0>---222-2-4------|
E)--0>---2>---------------------|

   "It's all over and I'm standing pretty in this dust, that was a city..."
G)----------------------------------------------------------|
D)----------------------------------------------------------|
A)----------0~-2~---------0~-2----------0~-2~~~~------------|
E)--00~-2~---------0~-2~---------0~-2~----------(Let-ring)--|

thank you,
 any suggestions?
e-mail me @ sk8fire_458@hotmail.com
Comments