Goldfinger - 99 Red Balloons Chords & Tabs

 

99 Red Balloons Chords & Tabs

Goldfinger Chords & Tabs

Version: 1 Type: Bass Tab 0 ratings
1 star 2 stars 3 stars 4 stars 5 stars
comments

99 Red Balloons Bass Tab

Song: 99 Red Balloons
Band: Goldfinger
Tabber: Nate Dawg

Intro:

G:----------------
D:----------------
A:----------------     (wait 2 bars for each note.)
E:0--------------0

Bridge:
[ Tab from: http://www.guitartabs.cc/tabs/g/goldfinger/99_red_balloons_btab.html ]
G:----------------------------------------
D:----------------------------------------
A:7-7---7---------------7-7---7-----------
E:----9---9---2h4p2-0-------9---9--7-7-7-9

Verse: (also for little solos)

G:----------------------------------
D:----------------------------------
A:------------------0-00-00--2-22-22
E:0-00-00--2-22-22------------------

The end is the verse but only play 1 note each instead of 5.

GOLDFINGER RULES!!!
Comments