Goldfinger - 99 Red Ballons Chords & Tabs

 

99 Red Ballons Chords & Tabs

Goldfinger Chords & Tabs

Version: 1 Type: Tab 0 ratings
1 star 2 stars 3 stars 4 stars 5 stars
comments

99 Red Ballons Tab

   
Guitar Tab
Goldfinger - 99 Red Ballons
eMail: yiw_no1@hotmail.com


(this is my first self-produced tab, maybe there are some mistakes, but i saw that the others of this song are not really right either)


Usual tuning

Intro:  F g bB C

part 1:
   F               g                  bB    C (evry Chord 8 times)
e:-----------------------------------------------------------------------------
h:-----------------------------------------------------------------------------
g:-----------------------------------------------------------------------------
d:-3--------------5------------------8-----2----------------------------------
a:-3--------------5------------------8-----3----------------------------------
e:-1--------------3------------------6-----3----------------------------------
   You and I_________________________

e:-----------------------------------------------------------------------------
h:-----------------------------------------------------------------------------
g:-----------------------------------------------------------------------------
d:-3---------------5------------------8-----2----------------------------------
a:-3---------------5------------------8-----3----------------------------------
e:-1---------------3------------------6-----3----------------------------------.......



[ Tab from: http://www.guitartabs.cc/tabs/g/goldfinger/99_red_ballons_tab.html ]
Part 2:
e:----------------------------------------         -----------------------------
h:----------------------------------------         -----------------------------
g:----------------------------------------         -----------------------------
d:---------------------3---3\0--3--0------>> 4times-----------------------------
a:----------------------------------------         -----------------------------
e:-------------------------------------1--         -----------------------------




e:--------------------------------------------------------------------------         --
h:---------------------0/2\0------------------------------------------------         --
g:-----3---3\0--3--0----------3--3\0-----3---3\0--3--0----------------------         --
d:--------------------------------------------------------3--3---3--3/5----->>4times --
a:--------------------------------------------------------------------------         --
e:--------------------------------------------------------------------------         --




Part 3 :
   F     g     bB    C
e:-1-----3-----6-----0--------------------------------------------------------------
h:-1-----3-----6-----1--------------------------------------------------------------
g:-2-----3-----7-----0--------------------------------------------------------------
d:-3-----5-----8-----2---------------------------------------------------------------
a:-3-----5-----8-----3---------------------------------------------------------------
e:-1-----3-----6-----3---------------------------------------------------------------




__________________


in some things you have to listen to the song, but I think it's not very hard to find out the way of playing that song.


and remember:
WAR IS NOT THE ANSWER. BUSH PAYS MORE FOR THAT FUCKING WAR THAN FOR TRANSPORTING OR BUYING OIL FROM IRAK. BECAUSE WAR COSTS LIFES. THAT PRICE IS TOO HIGH TO BE PAID.

PEACE FOR THE WORLD AND THAT INCLUDES IRAK.
RAISE YOUR VOICE, TOGETHER AGAINST WAR!

Piece for the World.
Comments